Gametabs
Home
Tabs
Random

Weapons Factory

Average rating: 5.000

1 ratings

Composer:

Tabber:

Style:

Instrument:

Created: February 13, 2015 at 12:00 AM

            Weapons Factory
Super Mario RPG: Legend of the Seven Stars
Composed by: Yoko Shimomura
Transcribed by: Shrinx

Guitar - Standard Tuning (EADGBe)
Bass - 4 String/Standard Tuning (EADG)


Time Signature - Alternates between 7/8 and 6/8
BPM - 120



Guitar
   
e|--------------|------------|--------------|------------|
B|--------------|------------|--------------|------------|
G|--------------|------------|--------------|------------|
D|--------------|------------|--------------|------------|
A|--------------|------------|--------------|------------|
E|--------------|------------|--------------|------------|


e|--------------|------------|--------------|------------|
B|--------------|------------|--------------|------------|
G|--------------|------------|--------------|------------|
D|--------------|------------|--------------|------------|
A|--------------|------------|--------------|------------|
E|--------------|------------|--------------|------------|

Repeat starts here
   E E E E E E E  E E E E E E  E E E E E E E  E E E E E E
e|--------------|-6-5-6-5----|--------------|-6-5-6-5----|
B|-----------8-6|---------8-6|-----------8-6|---------8-6|
G|-7-8-5-7-8----|------------|-7-8-5-7-8----|------------|
D|--------------|------------|--------------|------------|
A|--------------|------------|--------------|------------|
E|--------------|------------|--------------|------------|


   E E E E E E E  E E E E E E  E E E E E E E  E E E E E E
e|--------------|-6-5-6-5----|--------------|-6-5-6-5----|
B|-----------8-6|---------8-6|-----------8-6|---------8-6|
G|-7-8-5-7-8----|------------|-7-8-5-7-8----|------------|
D|--------------|------------|--------------|------------|
A|--------------|------------|--------------|------------|
E|--------------|------------|--------------|------------|


   E  E  E  E  E E E  E E  E E E  E  E  E  E  E  E E E  E E  E E E  E
e|---------------9-8|11-9-11-9-8---|---------------9-8|11-9-11-9-8---|
B|10-11----10-11----|------------11|10-11----10-11----|------------11|
G|------11----------|--------------|------11----------|--------------|
D|------------------|--------------|------------------|--------------|
A|------------------|--------------|------------------|--------------|
E|------------------|--------------|------------------|--------------|


   E E E E E E E  E E E E E E  E E E E E E E  E E E E E E
e|--------------|-7-6-7-6----|--------------|-7-6-7-6----|
B|-----------9-7|---------9-7|-----------9-7|---------9-7|
G|-8-9-6-8-9----|------------|-8-9-6-8-9----|------------|
D|--------------|------------|--------------|------------|
A|--------------|------------|--------------|------------|
E|--------------|------------|--------------|------------|


e|--------------|------------|--------------|------------|
B|--------------|------------|--------------|------------|
G|--------------|------------|--------------|------------|
D|--------------|------------|--------------|------------|
A|--------------|------------|--------------|------------|
E|--------------|------------|--------------|------------|


   E E E E E E E  E E E E E E  E E E E E E E  E E E E E E
e|--------------|-6-5-6-5----|-----------6--|-9-8-9-8-6--|
B|-----------8-6|---------8-6|-6-7---6-7---9|-----------9|
G|-7-8-5-7-8----|------------|-----8--------|------------|
D|--------------|------------|--------------|------------|
A|--------------|------------|--------------|------------|
E|--------------|------------|--------------|------------|


   E  E  E E  E E  E  E  E  E  E E  E 
e|--------------9---|12-11-12-11-9---|--------------|------------|
B|-9-10----9-10---12|--------------12|--------------|------------|
G|------11----------|----------------|--------------|------------|
D|------------------|----------------|--------------|------------|
A|------------------|----------------|--------------|------------|
E|------------------|----------------|--------------|------------|

  
e|--------------|------------|--------------|------------|
B|--------------|------------|--------------|------------|
G|--------------|------------|--------------|------------|
D|--------------|------------|--------------|------------|
A|--------------|------------|--------------|------------|
E|--------------|------------|--------------|------------|


                  Q.    Q.     E E E E E E E  E E E E E E
e|--------------|------------|--------------|-4-3-4-3----|
B|--------------|-------2<---|-----------6-4|---------6-4|
G|--------------|------------|-5-6-3-5-6----|------------|
D|--------------|------------|--------------|------------|
A|--------------|------------|--------------|------------|
E|--------------|------------|--------------|------------|


   E E E E E E E  E E E E E E  E E E E E E E  E E E E E E
e|--------------|-4-3-4-3----|--------------|-6-5-6-5----|
B|-----------6-4|---------6-4|-----------8-6|---------8-6|
G|-5-6-3-5-6----|------------|-7-8-5-7-8----|------------|
D|--------------|------------|--------------|------------|
A|--------------|------------|--------------|------------|
E|--------------|------------|--------------|------------|


   E E E E E E E  E E E E E E
e|--------------|-6-5-6-5----|
B|-----------8-6|---------8-6|
G|-7-8-5-7-8----|------------|
D|--------------|------------|
A|--------------|------------|
E|--------------|------------|



Bass

   E E E E E E E  E E E E E E  E E E E E E E  E E E E E E
G|-----5-3------|-----5-3----|-----5-3------|-----5-3----|
D|---5-----3-5--|---5-----3-5|---5-----3-5--|---5-----3-5|
A|-3-----------5|-3----------|-3-----------5|-3----------|
E|--------------|------------|--------------|------------|


   E E E E E E E  E E E E E E  E E E E E E E  E E E E E E
G|-----5-3------|-----5-3----|-----5-3------|-----5-3----|
D|---5-----3-5--|---5-----3-5|---5-----3-5--|---5-----3-5|
A|-3-----------5|-3----------|-3-----------5|-3----------|
E|--------------|------------|--------------|------------|

Repeat starts here
   E E E E E E E  E E E E E E  E E E E E E E  E E E E E E
G|-----5-3------|-----5-3----|-----5-3------|-----5-3----|
D|---5-----3-5--|---5-----3-5|---5-----3-5--|---5-----3-5|
A|-3-----------5|-3----------|-3-----------5|-3----------|
E|--------------|------------|--------------|------------|


   E E E E E E E  E E E E E E  E E E E E E E  E E E E E E
G|-----5-3------|-----5-3----|-----5-3------|-----5-3----|
D|---5-----3-5--|---5-----3-5|---5-----3-5--|---5-----3-5|
A|-3-----------5|-3----------|-3-----------5|-3----------|
E|--------------|------------|--------------|------------|


   E  E  E E E  E  E  E  E  E E E  E  E  E  E E E  E  E  E  E  E E E  E
G|------11-9--------|------11-9-----|------11-9--------|------11-9-----|
D|---11------9-11---|---11------9-11|---11------9-11---|---11------9-11|
A|-9--------------11|-9-------------|-9--------------11|-9-------------|
E|------------------|---------------|------------------|---------------|


   E E E E E E E  E E E E E E  E E E E E E E  E E E E E E
G|-----6-4------|-----6-4----|-----6-4------|-----6-4----|
D|---6-----4-6--|---6-----4-6|---6-----4-6--|---6-----4-6|
A|-4-----------6|-4----------|-4-----------6|-4----------|
E|--------------|------------|--------------|------------|


   E E E E E E E  E E E E E E  E E E E E E E  E E E E E E
G|-----4-2------|-----4-2----|-----4-2------|-----4-2----|
D|---4-----2-4--|---4-----2-4|---4-----2-4--|---4-----2-4|
A|-2-----------4|-2----------|-2-----------4|-2----------|
E|--------------|------------|--------------|------------|


   E E E E E E E  E E E E E E  E E E E E E E  E E E E E E
G|-----5-3------|-----5-3----|-----6-4------|-----6-4----|
D|---5-----3-5--|---5-----3-5|---6-----4-6--|---6-----4-6|
A|-3-----------5|-3----------|-4-----------6|-4----------|
E|--------------|------------|--------------|------------|


   E  E  E E E  E  E  E  E  E E E  E  H..            H.
G|------11-9--------|------11-9-----|--------------|------------|
D|---11------9-11---|---11------9-11|-5------------|-T----------|
A|-9--------------11|-9-------------|--------------|------------|
E|------------------|---------------|--------------|------------|


   H..            H.           H..            H.
G|--------------|------------|--------------|------------|
D|--------------|------------|-8------------|-T----------|
A|-3------------|-T----------|--------------|------------|
E|--------------|------------|--------------|------------|


   H..                         E E E E E E E  E E E E E E
G|--------------|------------|-----3-1------|-----3-1----|
D|-T------------|------------|---3-----1-3--|---3-----1--|
A|--------------|------------|-1-----------3|-1---------3|
E|--------------|------------|--------------|------------|


   E E E E E E E  E E E E E E  E E E E E E E  E E E E E E
G|-----3-1------|-----3-1----|-----5-3------|-----5-3----|
D|---3-----1-3--|---3-----1--|---5-----3-5--|---5-----3-5|
A|-1-----------3|-1---------3|-3-----------5|-3----------|
E|--------------|------------|--------------|------------|


   E E E E E E E  E E E E E E 
G|-----5-3------|-----5-3----|
D|---5-----3-5--|---5-----3--|
A|-3-----------5|-3---------5|
E|--------------|------------|



Legend:
E - Eighth note
Q - Quarter note
H - Half note
T - Tied note
. - Dotted note
..- Double dotted note
< - Fade in


HUGE thanks to Auriplane with helping me out with structuring this one! It's pretty
weird how the time signature keeps alternating the way it does, and it may screw with
your timing a little, but it looks a LOT better now than it did initially.

Anyway, all that aside, this song is awesome, and makes for an amazing 'final area'
theme to the amazingness that is Super Mario RPG. I would recommend you look
up the actual track so you can see how the song plays out. It'll be a lot easier to
play along to that way.


Also the tab looks like it has waves going through it!! XD
        
Comments

No comments yet