Gametabs
Home
Tabs
Random

Bubblaine

Average rating: 5.000

3 ratings

Composer:

Tabber:

Style:

Instrument:

Created: February 19, 2021 at 12:00 AM

            Title: Bubblaine
Album: Super Mario Odyssey
Music: Naoto Kubo, Shiho Fujii, Koji Kondo
Tabber: H.F.

Tempo = 62

Legend
L - tied note
h - hammer on/pull off
s - slide
^ - brush down

Capo 1st
                                                             
E |----------------------------|----------------------------|
B |--5-----5--------5-----5L---|--5--5-----5--------5-------|
G |--6-----6--------6-----6L---|--6--6-----6--------6-------|
D |--4-----4--------4-----4L---|--4--4-----4--------4-------|
A |--5-----------0-------------|--5-----------0-------------|
E |----------------------------|----------------------------|

                                                          
----------------------------|----------------------------|
--3-----3--------3----------|-----0----------------------|
--4-----4--------4----------|-----0--------3-----3-------|
--4-----4--------4----------|-----0--------5-----5-------|
----------------------------|--------------0-------------|
--3-----------3-------------|--0-------------------------|

                                                          
----------------------------|--------------------2-------|
--5-----5--------5----------|-----2--------------2-------|
--6-----6--------6----------|-----2-----2--------2-------|
--4-----4--------4----------|--0--------4----------------|
--5-----------0-------------|--------------0-------------|
----------------------------|----------------------------|

                                  ^                                        
----------------------------|----------------||-5-------------------------|
--3-----3--------3----------|-----3----------||-5-----5--------5-----5----|
--4-----4--------4----------|-----3----------||o6-----6--------6-----6----|
--4-----4--------4----------|-----2-----7----||o0-------------------------|
-----------------------3----|-----3----------||-------------0-------------|
--3-----------3-------------|----------------||---------------------------|

                                                     
--------------------------3--------2--------3-------|
--------5-------------------------------------------|
--------6-------------------------------------------|
--0-------------------------------------------------|
--------------------------0-------------------------|
----------------------------------------------------|

                                                          
--2-------------------------|-----------------------7L---|
--0--------3L-3--3-----0----|--------0-------------------|
-----------4-----4----------|-----------------2----------|
--------------0--------4----|--------4-----0-------------|
----------------------------|----------------------------|
--3-------------------------|--3-------------------------|

                                                    
--7--5L-5-------------------|-----------5--3--2----|
--------5--------5-----5----|-----7--8--5----------|
--------6--------6-----6----|-----6-----6----------|
--0-------------------------|--0-------------------|
--------------0-------------|-----------0----------|
----------------------------|----------------------|

                                                          
--0-----2-------------------|----------------------------|
--0--------3L-3--3-----3----|-----3-----3----------------|
-----------4-----4-----3----|-----3-----3--------7-------|
--------------0--------2----|-----2-----2----------------|
----------------------------|--3-----------3-------------|
--3-------------------------|----------------------------|

                             
--10------------------------|
----------------------------|
--------7--------7----------|
--------7--------7----------|
--9-----------9-------------|
----------------------------|

                                                     
--------5-----------------3--------2--------3-------|
--------4-----------------4-------------------------|
--------5-----------------5-------------------------|
--3-------------------------------------------------|
----------------------------------------------------|
----------------------------------------------------|

                                                                             
--5-------------------------------------------------------------------------|
--0--------------------------3L-------3-----------2-----------3-------------|
----------------------------------------------------------------------------|
--2-------------------------------------------------------------------------|
--------------------------------------2-------------------------------------|
----------------------------------------------------------------------------|

                                                          
--------------0-------------|----------------------------|
--4-------------------------|-----------------------3L---|
--6-----------2-------------|--2--------------2----------|
-----------2----------------|--2-----2--------2----------|
--0-----------------0-------|----------------------------|
----------------------------|--2-----------2-------------|

                                                               ^           
-----------------0-----5L---|--5-------------------------|----------------|
--3-----------------3-------|--------3--------0----------|-----2----------|
-----2-----2----------------|--------4--------0----------|-----0----------|
-----1-----1----------------|----------------------------|-----1-----7----|
--------------3-------------|--------------2-------------|--0-------------|
--1-------------------------|--0-------------------------|----------------|

                             
--5-------------------------|
--5-----5--------5-----5----|
--6-----6--------6-----6----|
--0-----------7-------------|
----------------------------|
----------------------------|

                                                     
--------------------------3--------2--------3-------|
--------5-------------------------------------------|
--------6-------------------------------------------|
--0-----------------------------------0-------------|
--------------------------0-------------------------|
----------------------------------------------------|

                                                          
--2-------------------------|-----------------------7L---|
--0--------3L-3--3----------|-----0L-0-------------------|
-----------4-----4----------|-----0L-0-------------------|
--------------0-------------|-----0L-0--------7----------|
----------------------------|--------------0-------------|
--3--------------------0----|-----0L-0-------------------|

                                                          
--7--5L-5-------------------|----------------------------|
--------5--------5-----5----|-----7--------8-----10------|
--------6--------6-----6----|-----7--------9-----11------|
--0-------------------------|--0-----------------0-------|
--------------0-------------|--------------0-------------|
----------------------------|----------------------------|

                                                          
--10------------------------|--------------12------------|
--12------------------------|--------------------11------|
--0--------------7-----7----|-----7-----0--------12------|
--------12----0--------8----|-----8-----------10---------|
-----------------------7----|-----7----------------------|
----------------------------|--8-------------------------|

                                                          
--10------------------------|-----9L-9-----7-----9-------|
--------7--------7----------|-----9--------9-----9-------|
--------7--------7----------|-----7--------7-----7-------|
----------------------------|----------------------------|
--9-----------9-------------|--8-----------8-------------|
----------------------------|----------------------------|

                                                                             
--10-------------------------7L-------7-----------3-------------------------|
--8-----------------------------------0-----------------------3-------------|
--7-------------------------------------------------------------------------|
----------------------------------------------------------------------------|
--7-------------------------------------------------------------------------|
----------------------------------------------------------------------------|

                                                        
--2-----------------------1s-2-------------------------|
--2----------------------------------------------------|
--0-----------------------1s-2-------------------------|
-------------------------------------------------------|
--0----------------------------------------------------|
-------------------------------------------------------|

                                                          
----------------------------|----------------------------|
--3-----3-------------------|-----3----------------------|
--2-----2-------------------|-----1----------------------|
--4-----4-------------------|-----0--------2-------------|
--2-----------2-------------|-----------2----------------|
-----------------2--1--0L---|--0-----------------4-------|

                                     ^
----------------------------|----------------------------|
--3-----3--------3----------|--------2-------------------|
--0-----0--------0----------|--------0--------7----------|
----------------------------|--------2-------------------|
--0-----------0-------------|--0-----------------0-------|
----------------------------|----------------------------|


--5-------------------------|--3--------1--------3-------|
--------6--------6----------|--3--3-----3--------3-------|
--------7--------7----------|--2--2-----2--------2-------|
----------------------------|----------------------------|
----------------------------|--1-----------1-------------|
--6-----------6-------------|----------------------------|


--5-------------------------|----------------------------|
--7-----7--------7-----7----|-----7-----7----------------|
--6-----6--------6-----6----|-----6-----6-----7----------|
--0-------------------------|--0-------------------------|
--------------0-------------|--------------0-------------|
----------------------------|----------------------------|


--5-----------------------5-----6-------|
-----------6--------------6-------------|
-----------7--------------7-------------|
----------------------------------------|
----------------------------------------|
--6-----------------6-------------------|


--8-----------------------6--------5--------3-------|
--------6-----------------3-------------------------|
--------7-------------------------------------------|
--------------------------3-------------------------|
--8-------------------------------------------------|
----------------------------------------------------|


--5-------------------------|
--3-----3--------3----------|
--4-----4--------4----------|
----------------------------|
----------------------------|
--3-----------3-------------|


--------------------------------------5-----------3-----------2-------------|
--3--------3-----------------3----------------------------------------------|
--4--------4-----------------4----------------------------------------------|
----------------------------------------------------------------------------|
----------------------------------------------------------------------------|
--3-------------------------------------------------------------------------|


--1-----------------------3-----5-------|
--3--------3--------------3-------------|
--3--------3--------------3-------------|
----------------------------------------|
----------------------------------------|
--3-----------------3-------------------|


--------------------------8-----------------3h-1----|
--5-------------------------------------------------|
--------3-----------0-----------------3-------------|
--------5-------------------------------------------|
--3-------------------------------------------------|
----------------------------------------------------|


--0-----------------1-----3--------0----------------|
--------------------------------------------1-------|
--2-------------------------------------------------|
--3-------------------------------------------------|
--------------3-------------------------------------|
----------------------------------------------------|


----------------------------|--0-----------------0-------|
--3-----------------1--3----|--2--------4--------2-------|
--2-----2--------3----------|--2-------------------------|
--3-----3-------------------|----------------------------|
--1-----------1-------------|--------------4-------------|
----------------------------|--2-------------------------|


--7-----------2h-0--------------0h-2----|----------------------------|
--------------------4-------------------|--4--------------------2L---|
--5--------------------------2----------|--1-------------------------|
--7-----------4-------------------------|--------------------2-------|
----------------------------------------|-----------2L-2-------------|
----------------------------------------|--0-------------------------|


----------------------------|----------------------------|
--2-------------------------|--2-----2--------2-----0L---|
-----1-----1--------1-------|--2-----2--------2----------|
-----2-----2--------2-------|--0-------------------------|
--0-----------0-------------|--------------0-------------|
----------------------------|----------------------------|


----------------------------|----------------------------|
--0-------------------------|--2-----2--------2----------|
-----4-----4--------4-------|--2-----2--------2----------|
-----4-----4--------4-------|--0-------------------------|
----------------------------|--------------0-------------|
--3-----------3-------------|-----------------------3----|


---------------------------|||
--3------------------------|||
--------4-----------------o|||
--------4-----------7-----o|||
-----5---------------------|||
---------------------------|||


        
Comments

No comments yet