Gametabs
Home
Tabs
Random

Overworld

Average rating: 5.000

3 ratings

Composer:

Tabber:

Style:

Instrument:

Created: September 17, 2012 at 12:00 AM

                                   Overworld         from  Super Mario Land  (1989)

Music by Hirokazu Tanaka  >>  a orchestral uncredited midi file  >>  guitar arr. by Diralark

Guitar (Capo 3), tempo 74

     Q    E  E  S E.  S E.  Q         E  E  S S S S E  E  S S S S    E  E  E  E  E  E  E  E   
E||------------------------------||-------------------------------|-----------------------0--|
B||-------3--2--1-0--------------||---0-----------0---------------|--0--0--------0--1--3-----|
G||-------4--3--2-0--------------||*--------2-0-------------0---2-|--------2--0--------------|
D||---------------------0---0----||*-----0------0------1------1---|-----2-----2--------------|
A||------------------------------||------2------2------2----------|-----------2--------2-----|
E||------------------------------||---3-------------3-----3-------|--3-----------3-----------|


  S S E  E  E  E  S S E  E     E  E  E  E  E    E     Q     S E.     E  E  S S S S E  E  S S S S  
----------------------------|-----------------(10)--(10)----------|------------------------------|
----------------------------|-------------------------------------|--0-----------0---------------|
----0----0--------0-0-------|-------------------------------------|--------2-0-------------0---2-|
------2-----2--0--0------0--|-----0--2--4------10-------------0---|-----0------0------1------1---|
--3------3--------2---2--2--|--3--2--3--4-------------------------|-----2------2------2----------|
---------------3------------|--5----------------------------------|--3-------------3-----3-------|


                                                                           ^         
  E  E  E  E  E  E  E  S S    S S E  E  E  E  S S E  E     E  E  E  E  S   E.  Q     
--------------0-----3------|----------------------------|---------------------------|
--0--0-----------3-----0---|---------------0------------|--1--0---------------------|
--------2--0-------------2-|----0----0--2-----0-0-------|--------0--2----<>7---7----|
-----2-----2---------------|------2-----------0------0--|---------------------------|
-----------2--------2------|--3------3-----2--2---2--2--|--0--2--3--4---------------|
--3-----------3------------|----------------------------|---------------------------|


                                                          idem                        
  E  E  E  E  E  S S E  E     E  E  S S E  E  E  E  E     E    E  E  E  E  S S E  E   
-----0--2--3--2------L-----|---------------------------|-------0--2--3--2------L-----|
-------------------3-------|--1-----3-1----0--1--2--3--|---------------------3-------|
---------------------------|---------------------------|-----------------------------|
---------------------------|-----2------2-----------0--|-----------------------------|
--3-----3-----2------2-----|--0-----0------2--3--4-----|--3-------3-----2------2-----|
-----3-----------3------3--|---------------------------|-------3-----------3------3--|


  VI        -]                                       
  E   E  E  E  S S E  E  E       H        H          
--6--------------------------||--3-----------------||
-----10-----8----------------||--0-----------------||
----------------------------*||--------------------||
---------------0-0----------*||--------------------||
--6------6---------3--2--0---||--------------------||
------------6----------------||--3-----------------||

Legend
---------------
H - half
Q - quarter
E - 8th
S - 16th
. - note dotted
L - tied note
        
Comments

No comments yet