Gametabs
Home
Tabs
Random

Mario Circuit

Average rating: 4.000

1 ratings

Composer:

Tabber:

Style:

Instrument:

Created: January 13, 2011 at 12:00 AM

            Super Mario Kart - Mario Circuit
Platform: Super Nintendo Entertainment System/SNES, Wii
Developer/Publisher: Nintendo
Composed by: Soyo Oka
	     Taro Bando

Electric Guitar Tab Created By: soundsandstuff channel www.youtube.com/user/soundsandstuff
Completed on: 6/14/10


Standard Tuning
================================================================================================================ 
Part A
E|------------------------------------|------------------------------------|------------------------------------|
B|------------------------------------|--------------------------------12--|------------------------------------|
G|-------------12--14--11-------------|-------------12--14--11--12---------|------------------------------------|
D|-------------------------12-----14--|------------------------------------|-------------15--17--14-------------|
A|------------------------------------|------------------------------------|-------------------------15-----17--|
E|------------------------------------|------------------------------------|------------------------------------|


E|--------|------------------------------------|------------------------------------|
B|--------|------------------------------------|--------------------------------12--|
G|--------|-------------12--14--11-------------|-------------12--14--11--12---------|
D|--------|-------------------------12-----14--|------------------------------------|
A|--------|------------------------------------|------------------------------------|
E|--------|------------------------------------|------------------------------------|

									Part B
E|------------------------------------|-------------------------------|------------------------------------|
B|------------------------------------|-------------------------------|-------------------------15---------|
G|------------------------------------|---------------------14---14---|--------------------------------17--|
D|-------------15--17--14-------------|-------------15--17------------|-------------14--15--17-------------|
A|-------------------------15-----17--|-------------------------------|------------------------------------|
E|------------------------------------|-------------------------------|------------------------------------|


E|-----------------------------|-------------------------20--|L20-22-20----20-18-------------------------------|
B|-----------------------------|--------------20--18---------|----------18-------18----------------------------|
G|L17-----------15--17---------|----------17-----------------|----------------------17-19-17-15----15-14-------|
D|----------15-------------19--|L19---19---------------------|----------------------------------15-------15----|
A|------15---------------------|-----------------------------|----------------------------------------------17-|
E|-----------------------------|-----------------------------|-------------------------------------------------|

Part C
E|------------------------------------|--------------------------------|--------------------------12-----12-|
B|-------------------------13---------|---------------------15-----13--|L13-L-13--------13-----13-----15----|
G|---------------------15---------14--|L14--12----------12-------------|-------------12-----14--------------|
D|-----------------15-----------------|---------14--15-----------------|----------15------------------------|
A|-------------17---------------------|--------------------------------|------------------------------------|
E|------------------------------------|--------------------------------|------------------------------------|


E|-------13--11-----------------|--------------------------------|----------------------------------|
B|---------------13--11-----13--|L13--13-13-13----13-13--14--15--|-16--16----16--17-17----17----17--|
G|------------------------------|--------------------------------|----------------------------------|
D|------------------------------|--------------------------------|----------------------------------|
A|------------------------------|--------------------------------|----------------------------------|
E|------------------------------|--------------------------------|----------------------------------|


================================================================================================================ Repeat/End 

Notes:
- Thank you for playing!
        
Comments

@Plecofish97 (June 22, 2011 at 7:28 PM)

a little too high for comfort. good work though! :)