Gametabs
Home
Tabs
Random

Koopa Beach Memories

Average rating: 5.000

5 ratings

Composer:

Tabber:

Style:

Instrument:

Created: April 23, 2016 at 12:00 AM

            			Koopa Beach Memories - The OneUps 
				~Super Mario Kart~

Composed by Soyo Oka 
Arranged by William Reyes 
Tabbed by Coolbreeze
Tempo = 80

Chords with an * strum in this order: D string, G string, e string, B string


     S S  S S  S S  S S  S S  S S  S S  S S     S S  S S  S S  S S  S S  S S  S S  S S
E |---------10--------10--------10--------10-|---------10--------10--------10--------10-|
B |-------8---------8---------8---------8----|-------8---------8---------8---------8----|
G |--9-10------9-10------9-10------9-10------|--9-10------9-10------9-10------9-10------|
D |------------------------------------------|------------------------------------------|
A |------------------------------------------|------------------------------------------|
E |------------------------------------------|------------------------------------------|


               A.H                                          A.H
  W        Q    Q     Q      Q       W       W       Q   Q   Q     Q       W       W
--L----||------------------<>12---|--L----|--L----|---------------------|-------|-------||
-------||-------------------------|-------|-------|--------------<>12---|--L----|--L----||
-------||*-----------------<>12---|--L----|--L----|--------------<>12---|--L----|--L---*||
-------||*------------------------|-------|-------|------0--------------|-------|------*||
-------||-------8---<>12----------|-------|-------|----------7----------|-------|-------||
-------||--10---------------------|-------|-------|--8------------------|-------|-------||
 

                                      ^                            ^      ^
  Q   Q    Q   Q       W       S  Q.  H       W       W       H    Q   E  E
---------------10---|--L----|--8------0----|--L----|--L----|-----------0-----|
-----------8--------|-------|-----8---6----|--L----|--L----|-------3------6--|
--9---10------------|-------|---------5----|--L----|--L----|-------4------4--|
--------------------|-------|---------0----|--L----|--L----|-------3------6--|
--------------------|-------|---------*----|-------|-------|--------------5--|
--------------------|-------|--------------|-------|-------|--3--------------|


     ^              ^         ^               ^                                    ^
  E  H    E  Q      Q   E  E  H       S S S S H.      E  E  E  E  Q.        E  Q.  Q.  E
-----8----7------|--5---3----------|----------0----|--0--1--3s-6--6------|--5------3------|
--L--6-------8---|--0------6--5----|--------5-3----|--------2s-5--5------|-----5---3------|
--L--7-----------|--0---------5----|------5---0----|--------3s-6--6------|---------2---X--|
--L--5-----------|------------3----|----3-----2----|------------------5--|---------0------|
--L--------------|--3---------5----|--5------------|--------0------------|---------0------|
-----------------|-----------------|---------------|---------------------|----------------|

                                          
        ^                     ^              ^             ^       ^        ^
  E  E  H.      H.   E  E     Q   Q   E  E   Q       H     H       Q   H    Q
--1--0--1----|-------2--3--|--5---7---8s-12--12---|--10----7----|--5---3----3---|
--------2----|--1----------|--5--------------10---|--------8----|--6--------4---|
--------2----|--2----------|--5--------------10---|--------8----|--6--------3---|
--------0----|-------------|--0--------------10---|-------------|-----------5---|
-------------|-------------|-----------------10---|--------8----|--6--------3---|
-------------|-------------|----------------------|-------------|-----------4---|


                                                      ^
  W       W       Q   Q    Q   Q       W       S  Q.  H       W       W
--L----|--L----|---------------10---|--L----|--8------0----|--L----|--L----|
--L----|--L----|-----------8--------|-------|-----8---6----|--L----|--L----|
--L----|--L----|--9---10------------|-------|---------5----|--L----|--L----|
--L----|--L----|--------------------|-------|---------0----|--L----|--L----|
--L----|--L----|--------------------|-------|---------*----|-------|-------|
-------|-------|--------------------|-------|--------------|-------|-------|


            ^      ^        ^               ^                       ^
  E  E  Q   Q   E  E     E  H    E   Q      Q   E  E  H       E  E  H    E  E                         
----------------0-----|-----8----7-------|--5---3----------|-------------------|
------------3------6--|--L--6--------8---|--3------6--5----|-------------8-----|
------------4------4--|--L--7------------|--3--------------|--3--4--6----6-----|
------------3------6--|--L--6------------|-----------------|--3--4--5-------5--|
-------------------5--|--L---------------|--3--------------|-------------------|
--5--4--3-------------|------------------|--3--------------|--3--4--5----------|


                ^                    ^         ^            ^                ^
  E  E  Q   Q   Q      Q  Q  H       E  E  Q   H       H.   Q      Q   E  E  H
--------------------|-------------|--3--3--1--------|-----------|------------7----|
--6-----5-------5---|--3--2--3----|--1---------5----|--3----6---|--5---4--5--5----|
--6-----6-------5---|-------------|--1---------2----|-------4---|------------6----|
-----5------5---3---|-------------|--0---------3----|-------5---|------------5----|
----------------5---|-------------|------------2----|-----------|------------0----|
--------------------|-------------|-----------------|-------0---|-----------------|

                                                      
                ^                          ^             ^
  W       E  E  Q   H        W       E  E  H.      E  E  H.
--L----|------------------|-------|-------------|-------------|
--L----|------------6-----|--L----|--5-----5----|--X--3--3----|
--L----|------------------|-------|-----5--5----|--------3----|
--L----|--6s-7--8---------|-------|--------5----|--------3----|
--L----|--------0---------|-------|--------8----|--------6----|
-------|------------------|-------|-------------|-------------|


        ^                    ^       
  E  E  H    Q      Q   H    Q      W      W
-----------------|---------------|------|-------|
--X--1--1--------|---------------|------|-------|
--------1----3---|------3----0---|--L---|--L----|
--------1--------|--6--------2---|--L---|--L----|
--------4--------|-----------3---|--L---|--L----|
-----------------|-----------3---|--L---|--L----|

  
  S S  S S  S S  S S  S S  S S  S S  S S     S S  S S  S S  S S  H
---------10--------10--------10--------10-|---------10--------10-L----|
-------8---------8---------8---------8----|-------8---------8---------|
--9-10------9-10------9-10------9-10------|--9-10------9-10-----------|
------------------------------------------|---------------------------|
------------------------------------------|---------------------------|
------------------------------------------|---------------------------|


                 ^             ^    ^          ^   ^                 
  H    E  Q.     W       E  E  H    Q      Q   Q   H       H    E  Q.
--L----8------|--0----|-----------------|--0-------8----|--L----7------|
----------8---|--6----|-------------3---|------6---6----|--L-------8---|
--------------|--5----|--------4----2---|------4---7----|--L-----------|
--------------|--0----|--------3----0---|------6---6----|--L-----------|
--------------|--*----|-------------2---|------5--------|--------------|
--------------|-------|--5--4--3--------|---------------|--------------|

   
  ^                       ^                                  ^
  Q   E  E  H       E  E  H    E  S S    S S S S S S S S Q   Q      Q   H.
--5---3----------|--------------------|--------------------------|-----------|
--3------6--5----|-------------8------|----6-------5---------5---|--L--------|
--3--------------|--3--4--6-------6---|------6-------6-------7---|--L---7----|
-----------------|--3--4--5-----------|--5-----5-------5-----7---|--L---8----|
--3--------------|--------------------|----------------------5---|--L--------|
--3--------------|--3--4--5---------5-|----------5-------5-------|-----------|
                                                                              

  ^                     ^             ^            ^
  H    H       E  E  E  E   E  Q.     H    H       H    Q   Q
------------|-----------3---3------|------------|---------------|
------------|-----------3------6---|--5----3----|--6----5---4---|
--6----7----|-----------3----------|--4---------|--4------------|
--7---------|-----------3----------|--3---------|--5------------|
--5---------|-----------3----------|--0---------|---------------|
--6---------|--6--5--3-------------|--4---------|--0------------|


      ^                     ^                           ^
  Q   H.      W       E  E  Q   H        W       E  E   H.
------7----|--L----|------------------|-------|--------------|
--5---5----|--L----|------------6-----|--L----|--5------5----|
------6----|--L----|------------------|-------|-----5---5----|
------5----|--L----|--6s-7--8---------|-------|---------5----|
------0----|--L----|--------0---------|-------|---------8----|
-----------|-------|------------------|-------|--------------|


        ^          ^                              ^
  E  E  H.      E  H    E  Q      W       H    E  Q.
-------------|-----0-----------|-------|--0-----------|
--L--3--3----|--L--1----3------|-------|--3----3--3---|
--L-----3----|--L--1-------3---|--L----|--2-------0---|
--L-----3----|--L----------4---|--L----|----------0---|
--L-----6----|--L--------------|-------|--2-------0---|
-------------|-----------------|-------|----------3---|


     ^                           A.H
  E  Q.  Q   Q      W        Q    Q     Q      Q       W
-----------------|-------||------------------<>12---|--L----|
--1--1---0-------|--0----||-------------------------|-------|
-----2-------2---|-------||*-----------------<>12---|--L----|
-----3-----------|-------||*------------------------|-------|
-----------------|-------||-------8---<>12----------|-------|
-----3-----------|-------||--10---------------------|-------|


                 A.H
  W       Q   Q   Q     Q       W       W    3x
--L----|---------------------|-------|-------||
-------|--------------<>12---|--L----|--L----||
--L----|--------------<>12---|--L----|--L---*||
-------|------0--------------|-------|------*||
-------|----------7----------|-------|-------||
-------|--8------------------|-------|-------||
        
Comments

@bboypanda (April 23, 2016 at 7:17 PM)

Omg thank you very much!! I requested this one a while back, thank you 1000 times!!!


@Choogly (April 23, 2016 at 10:23 PM)

Great tab! So nice to see a jazzy piece. I listened to the recording as well, and you really did the piece justice.


@thedstring (April 25, 2016 at 1:45 AM)

This was awesome!


@quinndangle2 (April 25, 2016 at 4:19 AM)

holy moly this is nice