Gametabs
Home
Tabs
Random

The Story Begins

Average rating: 4.857

7 ratings

Composer:

Tabber:

Style:

Instrument:

Created: April 06, 2008 at 12:00 AM

            The story begins guitar tab
tabbed by: yoshistrings


E-----------------------------------5-3--------5-3-1-0-1-3----------------------
b------5-3-1-0-1-8-3------5-3-1-0-1----------1-------------1-----5-3-1-0-1-5-3--
g----0------------------0--------------------------------------2----------------
d-------------------------------------------------------------------------------
a-------------------------------------------------------------------------------
e-------------------------------------------------------------------------------

E----------------------------------5-3--------5-3-1-0-1-3-8-----
b------5-3-1-0-1-8-3-----5-3-1-0-1----------1-------------------
g----0-----------------0----------------------------------------
d---------------------------------------------------------------
a---------------------------------------------------------------
e---------------------------------------------------------------

E-------------------------
b----1-3-6-5-1---3-1------
g--------------2----------
d-------------------------
a-------------------------
e-------------------------

Repeat

        
Comments

@My Name There (April 24, 2008 at 6:04 PM)

This is awesome, but maybe some time you could add the tune in the background for a second guitar?


@snoman (May 03, 2008 at 4:53 AM)

I really like this. And I agree that the background would be nice, but this is tabbed really nicely. You picked a good song. Please do more.


@Takoon (June 12, 2008 at 4:11 AM)

This is a really beautiful song. It always kind of puts me in a kind of lull when I listen to the story in the game. -^ ^- Ditto on the background, but this is really beautiful.

It really reminds me of Paper Mario, and the ending theme for that...hm...I should play that game again.

Anyway, nice tab. ^ ^


@aznjwn (June 30, 2008 at 10:03 PM)

nice!


@jakey (July 02, 2008 at 5:47 PM)

i remember this! it plays wen rosalina reads books too. good tab, but it could be done easier.


@silverrida (September 23, 2008 at 11:32 PM)

I love almost all the music from galaxy. If you could do more as well as a background piece it would be sweet.


@yoshistrings (October 08, 2008 at 11:32 PM)

Ok, I did an acoustic tab with the background included. I'll post it soon.


@Poke-Dude (February 07, 2009 at 7:59 PM)

This sounds perfect. To make it easier this part E----------------------- b------5-3-1-0-1-8-3 g----0------------------ d----------------------- a----------------------- e----------------------- can be changed to E------------------3------ b------5-3-1-0-1---3 g----0------------------ d----------------------- a----------------------- e----------------------- which is almost/is the same. (Y'know... E=B on fret 5)


@Guiba (July 29, 2010 at 7:48 PM)

Nice work!!