Gametabs
Home
Tabs
Random

Starbit Festival

Average rating: 5.000

5 ratings

Composer:

Tabber:

Style:

Instrument:

Created: February 06, 2011 at 12:00 AM

                                Starbit Festival       from "Super Mario Galaxy"

Music: Koji Kondo, Mahito Yokota >> piano arr. Mark Andrews >> guitar arr. by Diralark                                 


Guitar (Capo 2), Tempo 120

                                                          1.2.______________
      III                                                    V                        
      E   E  E  E  E  E  E  E     E  E  E  E  E  E  E  E     E  E  E  E  E  E  E  E   
E||----------3--------3-----3--|--9-----0--------0-----0--|--8-----------------8-----|
B||-------3--------3-----3-----|--------------------------|--------5--------5-----5--|
G||*--4---------4--------------|-----6-----0--6-----6-----|-----5--------5-----5-----|
D||*---------------------------|--------------------------|--------------------------|
A||----------------------------|--------------------------|--------------------------|
E||---3---------3--3-----------|--6--------6--6-----------|--5--------5--------------|


  E  E  E  E  E  E  Q       E  E  E  E  E  E  E  E     E  E  E  E  E  E  E  E   
--7-----3----------------|--------------------------|--9-----------------------|
--0--------0--3----------|-----0--3-----0--3--0--3--|-----------------2-----2--|
-----------0-------------|--0--------0--------------|--0-----6--0--3-----3-----|
-----0-------------------|--------------------------|--------------------------|
--------------------0----|--2--------2--------------|--------------------------|
--3--------------3-------|--------------------------|--6--6--------------------|


  E  E  E  E  E  E  E  E     Q.     E  H           E  E  E  E  E  E  E  E   
--------------------------|--0------3--5--------|--------------------------|
--------1--------1-----1--|--1------5-----------|--------------------------|
--0--2-----0--2-----2-----|--0------5-----------|--4--4-----4--4--4-----4--|
--------------------------|--0------0-----------|--5--5-----5--5--5-----5--|
--0--------0--------------|---------------------|--------------------------|
--------------------------|---------------------|--3--3-----3--3--3-----3--|


              V (3)                                                                 
  E  E  E  E  E     E  E  E     E  E  E  E  E  E  E  E     E  E  E  E  E  E  E  E   
--------------------3--8-----|--------------------------|--------------------3--7--|
--------------5--------------|--------------------------|--3--3-----3--0--3--0-----|
--5--5-----5--5-----5-----5--|--6--6-----6--6--6-----6--|--0--0-----0--0--0--------|
--5--5-----5--5-----5-----5--|--5--5-----5--5--5-----5--|--------0--------0--------|
-----------4-----------------|--------------------------|-----2--------------------|
--3--4--6--------------------|--3--3-----3--3--3-----3--|--3-----------------------|


  E  E  E  E  E  E  E  E     E  E  E  E  E  E  E  E     E  E  E  E  E  E  E  E   
--2--------2-----------2--|--0--------5-----------0--|--0--------0-----------0--|
-----0--3--------0--3-----|--------------2-----2-----|--------2-----------2-----|
--------------------------|--------0--2-----2--------|-----2-----------2--------|
--------------------------|-----2--------------------|--------------------------|
--------------------------|--------------------------|--------------------------|
--3--3-----3--3--3-----3--|--3--3-----3--3--3-----3--|--2--2-----2--2--2-----2--|


  I                                                                              
  E  E  E  E  E  E  E  E     E  E  E  E  E  E  E  E     E  E  E  E  E  E  E  E   
-----------5--------------|-----------------------3--|--------2-----0-----------|
--4-----------------1--4--|--3-----0--3--------0-----|--2-----------------2-----|
--------2--------2--------|-----0-----------0--------|--------2-----0-----------|
-----3--------------------|--------------------------|--------------------------|
--------------------------|--------------------------|--0--0-----0--0--0-----0--|
--1--1-----1--1--1-----1--|--0--0-----0--0--0-----0--|--------------------------|


  E  E  E  E  E  E  E  E     E  E  E  E  E  E  E  E     E  E  E  E  E  E  E  E   
--0--------2--2-----------|--------5--------5--------|--2--------2-----------2--|
-----3-----3--3-----3-----|-----1--------1-----------|-----0--3--------0--3-----|
--2-----2--------2-----2--|--2--------2--------2-----|--------------------------|
--0--0-----0--0--0-----0--|--0--0-----0--0-----------|--------------------------|
--------------------------|--------------------------|--------------------------|
--------------------------|-----------------0--1--2--|--3--3-----3--3--3-----3--|


  E  E  E  E  E  E  E  E     E  E  E  E  E  E  E  E     E  E  E  E  E  E  E  E   
--0--------0--3--0--3--5--|--0--------0-----------0--|--------------1--------1--|
--------2-----------------|--------2-----------2-----|--4-----1--4-----1--4-----|
-----2--------------------|-----2-----------2--------|-----2--------------------|
--------------------------|--------------------------|--------------------------|
--------------------------|--------------------------|--------------------------|
--3--3-----3--3--3-----3--|--2--2-----2--2--2-----2--|--1--1-----1--1--1-----1--|


  E  E  E  E  E  E  E  E     E  E  E  E  E  E  E  E     E  E  E  E  E  E  E  E   
-----------------------3--|--------2-----0-----------|--0-----------------------|
--3--0--2--3--------0-----|--2-----------------2-----|-----------3--------------|
-----------------0--------|--------2-----0-----------|-----2-----2--------2-----|
--------------------------|--------------------------|--4-----4--------4-----4--|
--------------------------|--0--0-----0--0--0-----0--|--5--5-----5--5--5-----5--|
--0--0-----0--0--0-----0--|--------------------------|--------------------------|


                            3.___________ rall..............................T=80
  V                            V                          --                    
  E  E  E  E  E  E  E  E       E  E  E  E  E  E  E  E     E  E  E  E  H         
--------5--------5---------||--8-----------------8-----|--------------5--------|
---------------------------||--------5--------5-----5--|--5--------8-----------|
-----5--------5-----------*||-----5--------5-----5-----|--5-----5--------------|
--7--------7--------------*||--5--------5--------------|--5--5-----------------|
--5--5-----5--5--7--8--9---||--------------------------|--5--------------------|
---------------------------||--5--------5--------------|-----------------------|

  ^                  
  W                  
--3----------------||
-------------------||
-------------------||
--0----------------||
-------------------||
--3----------------||

Legend
---------------
W - whole
H - half
Q - quarter
E - 8th
L - tied note
^ - brush up

Note : fingertsteps in .pdf or gp5 files can help.


        
Comments

@yoshistrings (February 07, 2011 at 2:32 PM)

That's a so nice.


@BluePhoenix (February 08, 2011 at 3:25 AM)

I agree.


@diralark (March 17, 2011 at 11:49 AM)

thanks guys :)