Gametabs
Home
Tabs
Random

Underworld

Average rating: 4.500

2 ratings

Composer:

Tabber:

Style:

Instrument:

Created: January 19, 2010 at 12:00 AM

            Underworld
Super Mario Bros.
composer: Koji Kondo
Tabber: mario11bmr
1/18/2010


This is a transcription from the sheet music, so it's the closest
you're gonna get to the orginal!

Drop D Tuning: DADGBe

5^=natural harmonic (for the coins)
|-3-|=triplet

e------------------------------|--------------------------|
B------------------------------|--------------------------|
G------------------------------|--------------------------|
D----10---7---8------10---7---8|---3---0---1-----3---0---1|
A------------------------------|--------------------------|
D-10----7---8-----10----7---8--|-3---0---1-----3---0---1--|


e--------|-------------|--------------|-------------|
B--------|-------------|--------------|-------------|
G--------|-------------|----------3-2-|-1-----------|
D--------|---1-0-------|---4-3--2-----|---1---------|
A--6-5-4-|-3---------4-|-3------------|-----2--1-0--|
D--------|-------6-5---|--------------|------------6|
   |-3-|                 |-3-|  |-3-|   |-3-|  |-3-|


e------------------------------|----------------5^---5^-|------------
B------------------------------|--------------5^---5^---|------------
G------------------------------|------------------------|------------
D----10---7---8------10---7---8|---3---0---1------------|---3---0---1
A------------------------------|------------------------|------------
D-10----7---8-----10----7---8--|-3---0---1--------------|-3---0---1--


e--------|-------------|--------------|-------------|
B--------|-------------|--------------|-------------|
G--------|-------------|----------3-2-|-1-----------|
D--------|---1-0-------|---4-3--2-----|---1---------|
A--6-5-4-|-3---------4-|-3------------|-----2--1-0--|
D--------|-------6-5---|--------------|------------6|
   |-3-|                 |-3-|  |-3-|   |-3-|  |-3-|
        
Comments

No comments yet