Gametabs
Home
Tabs
Random

Underwater

Average rating: 3.600

5 ratings

Composer:

Tabber:

Style:

Instrument:

Created: August 29, 2008 at 12:00 AM

            Super Mario Bros. Water
-SamBeckett94

Melody

e------------------------
B-------------0-0-0-0-0--
G-------0-2-3-----------0
D-0-2-4------------------
A------------------------
E------------------------

e-----------------------------------
B-----------------------------------
G-----------------------------------
D-14-13-14-------9-10-12-14-13-15-14
A----------10-12--------------------
E-----------------------------------

e------------------------------------
B------------------------------------
G------------------------------0-10-9
D----12-11-12-------9-10-11-12-------
A-10----------10-12------------------
E------------------------------------

e--------------------------------------------------
B---8-8-8-8-10-8-------------8----------6-5-5-5-0--
G-0--------------10-10-10-10---10-9---5-----------5
D-----------------------------------7--------------
A--------------------------------------------------
E--------------------------------------------------

Harmony Melody

e----------------------
B----------------------
G----------------------
D-0-----------0-0-0-2-3
A---4-3-2-3-4----------
E----------------------

e-----------------
B-----------------
G-0-----0-0----2-0
D----4-------4----
A-----------------
E-----------------

e---------------
B---------------
G------------2-0
D-3-2-3-3-------
A----------2----
E---------------

e-12-10-9-10-9-8------------------
B----------------------0-0-0-0----
G--------------------0------------
D------------------3-----------3-2
A----------------3----------------
E---------------------------------

Bass Line
(played on a bass or a lead guitar)

G-------------------------------------			
D-5-5------10------9-------10-------10
A-------10------10------10-------10---
E-----8-------7-------8-------12------

G---------------------------------			
D------10------9-------10-------10
A---10------10------10-------10---
E-8-------7-------8-------12------

G------------------------------------------------------------
D-------9-----8-------9------9-------9------9------10------10
A----10-----9------10-----10------10-----10-----10------10---
E-10------9-----10------7------10------7------8-------3------

G---0-9---0-7---0-6---0-9
D------------------------
A------------------------
E-8-----7-----6-----9----

G-------10------10------10------10
D---------------------------------
A----12------12------12------10---
E-10-------9-------8-------7------

G------9----------------
D----------5-5-3-3-3----
A---10---------------2-3
E-8------3--------------



        
Comments

@hellucard (February 07, 2009 at 1:47 AM)

Really good!!