Gametabs
Home
Tabs
Random

Main Theme (Remix)

Average rating: 5.000

12 ratings

Composer:

Tabber:

Style:

Instrument:

Created: November 24, 2008 at 12:00 AM

            Super mario bros theme Remix tab

Tabbed by yoshistrings

  Gtr I
|-0-0-0---0-3----|----------------|---0-3-5-1-3-0--------------|
|-------1--------|--1-------0-----|---1-5-6-3-5-1-1-3-0--------|
|-------------0--|--0-0---2-0-3-2-|-0-------------2-4-0--------|
|----------------|----2-2-3---4-3-|-2--------------------------|
|-3-3-3-0-3-2----|------3---------|----------------------------|
|-------------3--|----------------|----------------------------|


|---------------|---0-3-5-1-3-0--------------|
|-1-------0-----|---1-5-6-3-5-1-1-3-0--------|
|-0-0---2-0-3-2-|-0-------------2-4-0--------|
|---2-2-3---4-3-|-2--------------------------|
|-----3---------|----------------------------|
|---------------|----------------------------|


|---3-2-1---0-------------------3-2-1---0-8-8-8----|
|-1-------4--------1---1-3------------4---8-8-8----|
|-0-----0---0-0-h2-0-2-0------------0---0----------|
|--------------------------------------------------|
|--------------------------------------------------|
|--------------------------------------------------|


|---3-2-1---0---------------------------|
|-1-------4--------1---1-3-----4-3-1----|
|-0-----0---0-0-h2-0-2-0-------4-3-0----|
|---------------------------------------|
|---------------------------------------|
|---------------------------------------|


|---3-2-1---0-------------------3-2-1---0-8-8-8----|
|-1-------4--------1---1-3------------4---8-8-8----|
|-0-----0---0-0-h2-0-2-0------------0---0----------|
|--------------------------------------------------|
|--------------------------------------------------|
|--------------------------------------------------|


|---3-2-1---0------------------------------|
|-1-------4--------1---1-3------4-3-1------|
|-0-----0---0-0-h2-0-2-0--------4-3-0------|
|------------------------------------------|
|------------------------------------------|
|------------------------------------------|


|--------------0-----------------0-0-0-0-0-0----|
|------1---1-3---1-------1---1-3----------------|
|-0-h2---2---------2-0-----2--------------------|
|------3---3---2---------3---3---2--------------|
|-----------------------------------------------|
|-----------------------------------------------|


|---------0-1-3-5----------------|
|-1---1-3-----------1---1-3-1----|
|---2-----------6-----2----------|
|-3---3---2---------3---3---2----|
|--------------------------------|
|--------------------------------|


|---------------|---0-3-5-1-3-0--------------|
|-1-------0-----|---1-5-6-3-5-1-1-3-0--------|
|-0-0---2-0-3-2-|-0-------------2-4-0--------|
|---2-2-3---4-3-|-2--------------------------|
|-----3---------|----------------------------|
|---------------|----------------------------|


|---------------|---0-3-5-1-3-0--------------|
|-1-------0-----|---1-5-6-3-5-1-1-3-0--------|
|-0-0---2-0-3-2-|-0-------------2-4-0--------|
|---2-2-3---4-3-|-2--------------------------|
|-----3---------|----------------------------|
|---------------|----------------------------|


|-0-----------1-1---------5-5-5-3-1-0----------|
|---1-------------------0-------------1--------|
|-0---0-0-1-2-----2-2-3-0-----------0---2-0----|
|-----------3----------------------------------|
|----------------------------------------------|
|----------------------------------------------|


|-0-----------1-1----------1-1-1-0--------|
|---1--------------------0---------3-1----|
|-0---0-0-1-2-----2-2-3--0-----------0----|
|-----------3-----------------------------|
|-----------------------------------------|
|-----------------------------------------|


|-0-----------1-1----------5-5-5-3-1-0----------|
|---1--------------------0-------------1--------|
|-0---0-0-1-2-----2-2-3--0-----------0---2-0----|
|-----------3-----------------------------------|
|-----------------------------------------------|
|-----------------------------------------------|


|-0-----------1-1----------1-1-1-0--------|
|---1--------------------0---------3-1----|
|-0---0-0-1-2-----2-2-3--0-----------0----|
|-----------3-----------------------------|
|-----------------------------------------|
|-----------------------------------------|


|-----------0-3-0--------------4-------------1-6--6-6-6-8----|
|---------1----------------1-4---4---------3-----------------|
|-------0---------------1----------------3-------------------|
|-----2---------------1--------------0-3---------------------|
|---3---------------3--------------1-------------------------|
|-3---------------4------------------------------------------|




        
Comments

@yoshistrings (November 25, 2008 at 9:40 PM)

Part of this comes out of the super mario world overworld theme. can you hear it?


@Waladuz (November 26, 2008 at 3:42 PM)

Whow! Awesome tab, man, and it's not as hard as other arrangements!


@silverrida (December 19, 2008 at 4:50 AM)

This is great. I have a hard time with the strumming only two strings, but I'm starting to get it. Right now I can play it and it sounds like a really slow version. :)


@NoZKeY (June 13, 2009 at 9:17 PM)

awesome tab, i love this version :D it helps a lot to practice fingerstyle playing


@myster mistery (November 24, 2009 at 3:10 AM)

This is fantastic. Sounds just about dead on while adding a few notes to spice things up a bit. It's not too difficult, so it's actually helping me as practice for finger picking. Thanks and keep up the good work. =]


@littlek (December 13, 2009 at 4:43 PM)

This is a semi hard tab for me, but then again I am a beginner, so everything is hard lol. Well I love this tab it is simple thank you for that. Looking to see some more stuff from you.