Gametabs
Home
Tabs
Random

Level Clear

Average rating: 4.333

6 ratings

Composer:

Tabber:

Style:

Instrument:

Created: September 30, 2007 at 12:00 AM

            Super Mario Bros. Level Clear! NES

Tabber: "Fast" Eddie Schofield

Standard Tuning

e-----------------0--3--0----
B--------------1-------------
G-----------0----------------
D--------2-------------------
A-----3----------------------
E--3-------------------------

e--------------------4-------
B--------------1--4-----4----
G-----------1----------------
D--------1-------------------
A-----3----------------------
E--4-------------------------

e-----------------1--6----6-6-6--8
B--------------3------------------
G-----------3---------------------
D-----0--3------------------------
A--1------------------------------
E---------------------------------

Rock on!

        
Comments

@Matthew (August 03, 2007 at 7:26 PM)

THIS SITE HAS NO GOOD BASS TABS!!!!!!!!!!!!!!


@eddhead (August 04, 2007 at 3:41 PM)

.... uhh....?


@Rocker (September 21, 2007 at 10:25 PM)

Yup, its correct if you play it in time


@Jason (September 22, 2007 at 11:50 PM)

very accurate tab and easy to play. Nice


@Thor (December 04, 2007 at 3:14 AM)

where are all the SMB tabs that tell you how long to play each note?


@jakey (January 10, 2008 at 5:34 PM)

those type of tabs're not tabs. and if you really need to no then y would you want to learn the song? you dont no wat it sounds like.

i think it is supposed to be played an octave up but otherwise it [emphasis] looks fine [/emphasis].


@Jimboh (January 15, 2008 at 1:42 AM)

dude timing? seriously you will never be able to play a tab if you dont know how the song goes...


@Anonymous (January 24, 2008 at 10:55 AM)

honestly people .. there is a link to the midi for every tab posted on this site .. i dont know if you are just not seeing it or if you are all half retarded .. either way.. listen to the midi to get the timing down .. really not that taxing is it?

btw bass sucks ... f*ck em


@Lol (March 14, 2008 at 7:51 PM)

OMG WOOT but how can you go through the whole level and get no points?!?!?!? hahahahah


@Ray (April 03, 2008 at 11:46 PM)

i tired of all these pussys who bitch about timing, for real, if u have no idea how the supermario brothers music goes, u should def kill yourself by chocking on a dick cuz it is the most well known tune. fckin figure out the timing ur god damn self! he's not ur mommy and doesnt need to wipe ur ass everytime u take a shit!