Gametabs
Home
Tabs
Random

World 7

Average rating: 5.000

4 ratings

Composer:

Tabber:

Style:

Instrument:

Created: June 30, 2008 at 12:00 AM

            Game: Super Mario Bros. 3
Song: World 7
Composed by: Koji Kondo
Tabbed by: Ponyplane

Key:
~ = vibrato
p = pull-off
h = hammer-on
b = bend
/ = slide
pm = palm-mute
tr = tremolo picking


e |---------------------------------|--------------8-10--11-------|
B |---------------------------------|--------------8-10--11-------|
G |-----8--10---10/11\10--8---------|-----8--10-------------------|
D |-10--8--10---10/11\10--8--10--8--|-10--8--10-------------------|
A |-10-----------------------10--8--|-10--------------------------|
E |---------------------------------|-----------------------------|
  |                                                               |   
G |---------------------------------|-----------------------------| 
D |-----1--3------------------------|-----1---3-------------------| 
A |-3-------------------------------|-3---------------------------| 
E |---------------------------------|-----------------------------|

Or combined with the bass up an octave:

e |---------------------------------|--------------8-10--11-------|
B |---------------------------------|--------------8-10--11-------|
G |-----8--10---10/11\10--8---------|-----8--10-------------------|
D |-10--8--10---10/11\10--8--10--8--|-10--8--10-------------------|
A |-10--6--8-----------------10--8--|-10--6--8--------------------|
E |-8-------------------------------|-8---------------------------|
        
Comments

@auriplane (January 03, 2009 at 4:15 PM)

I like to play it like this for some reason, even though it's not quite the same:

e |-----------------------|-----------------------|
B |-----------------------|---------8-10-11~~~~~--|
G |-0-3-5---5/6\5---3-0---|-0-3-5-----------------|
D |-0-3-5---5/6\5---3-0-3-|-0-3-5-----------------|
A |---------------------3-|-----------------------|
E |-----------------------|-----------------------|

@Alexander (June 02, 2009 at 5:49 AM)

I think it's more like this:

e |-----------------------|---------8-10-11~~~~~--|
B |-----------------------|---------8-10-11~~~~~--|
G |---3-5---5/6\5---3-0---|---3-5-----------------|
D |-5-1-3---5/6\5---3-0-3-|-5-1-3-----------------|
A |-3-------------------3-|-3---------------------|
E |-----------------------|-----------------------|

@Juja (June 02, 2009 at 7:23 AM)

I don't know which one of these is exactly what's played in the game, but at least people have 3 different tabs to choose from now. Auriplane, you should bust out your NES sound thingy to find out for sure.


@LTRobson (January 21, 2010 at 10:47 PM)

I just submitted this tune and noticed you had already written it exactly the same, tho I play it this way also as it seems to give a clearer tone nearer the neck:

|-----1----------------1/2\1--------------1--------------8-10-11-|
|-1-4-1----------------1/2\1--4-1-----1-4-1--------------8-10-11-|
|-0-3-------------------------3-0-3---0-3------------------------|
|---------------------------------3------------------------------|
|----------------------------------------------------------------|
|----------------------------------------------------------------|

@musenji (March 04, 2010 at 9:40 AM)

I think they're all equally near the neck. :P :D

Kudos, all!

There seems to be a lot of SMB3 music that is minimalist, prime for improvised descant lines...