Gametabs
Home
Tabs
Random

World 6

Average rating: 5.000

1 ratings

Composer:

Tabber:

Style:

Instrument:

Created: October 24, 2008 at 12:00 AM

            Game: Super Mario Bros. 3
Song: World 6
Composed by: Koji Kondo
Tabbed by: Not So Great Juja (Paul Horses)

Key:
~ = vibrato
p = pull-off
h = hammer-on
b = bend
/ = slide
pm = palm-mute
tr = tremolo picking


Just repeat this over and over.


e|-15----------------------15-----------------13----| 
B|-------------16----------------------16-----------| 
G|----12-16-12----12-16-12----12-16-12----12-----12-| 
D|--------------------------------------------------| 
A|--------------------------------------------------| 
E|--------------------------------------------------| 



e|-16----------------------16-----------------14----| 
B|-------------17----------------------17-----------| 
G|----13-17-13----13-17-13----13-17-13----13-----13-| 
D|--------------------------------------------------| 
A|--------------------------------------------------| 
E|--------------------------------------------------| 



If you find it too hard to pick every other note, here's
a simplified version:



e|-15--------------15-------------| 
B|---------16--------------16--18-| 
G|-----16------16------16---------| 
D|--------------------------------| 
A|--------------------------------| 
E|--------------------------------| 


e|-16--------------16-------------| 
B|---------17--------------17--19-| 
G|-----17------17------17---------| 
D|--------------------------------| 
A|--------------------------------| 
E|--------------------------------| 

        
Comments

@Juja (October 24, 2008 at 8:38 AM)

Oh good lord. How do I make this not look crappy, Archard? Isn't there some kind of tag you have to enter to make the tab look how it's supposed to?


@Juja (October 24, 2008 at 8:41 AM)

I looked into the editing view of one of my other tabs and found what I was looking for. The problem was that I didn't use the "pre" tags.