Gametabs
Home
Tabs
Random

Overworld 2

Average rating: 4.667

3 ratings

Composer:

Tabber:

Style:

Instrument:

Created: September 30, 2007 at 12:00 AM

            "Overworld 2" Super Mario Bros. 3 NES

Tabber: "Fast" Eddie Schofield

Standard Tuning

I think the only symbol I use in this one is b = bend

Intro

e--14-15-15-15---2-3-3-3----
B---------------------------
G---------------------------
D---------------------------
A---------------------------
E---------------------------

e---------------
B---------------
G---------------
D--4-5-4-5-5----
A---------------
E--------------3

Main Part

e--2-3-3-2-3-3-2-3-5-4-5-6b---5-3-1-------
B-----------------------------------------
G-----------------------------------------
D-----------------------------------------
A-----------------------------------------
E-----------------------------------------

e--2-3-3-2-3-3-2-3-5-4-5-7----10-15-------
B-----------------------------------------
G-----------------------------------------
D-----------------------------------------
A-----------------------------------------
E-----------------------------------------

e--2-3-3-2-3-3-2-3-5-4-5-6b---5-3-1-------
B-----------------------------------------
G-----------------------------------------
D-----------------------------------------
A-----------------------------------------
E-----------------------------------------

e--0-1-3-5--3-1-0---0-1-3--1-0--------0-1--0--------
B-----------------3------------3--1-3--------3-0-1--
G---------------------------------------------------
D---------------------------------------------------
A---------------------------------------------------
E---------------------------------------------------

e------------
B------------
G------0-----
D---3----2---
A------------
E------------

Bridge   (I just did the lead-piano-thing, because I'm lazy)

e---------15---------15---------13--------
B-----------------------------------------
G--14--14-----12--12-----10--10-----------
D-----------------------------------------
A-----------------------------------------
E-----------------------------------------

e---------------------
B--10-9-10-11-12--13--
G---------------------
D---------------------
A---------------------
E---------------------

e---------15---------13------
B----------------------------
G--14--14----12--12-------10-
D----------------------------
A----------------------------
E----------------------------

e----------------------------
B----------------------------
G--9-10-11-12-0-0-0-0--------
D----------------------------
A----------------------------
E---------------------3-3-3--

e-------------------------------
B-------------------------------
G-------------------------------
D-------------------------------
A-------------------------------
E--2-3-2-3-4-5-6-7--------------

Repeat from beginning as many times as you can stand.

Send any questions/comments/hatred about the tab to [email protected]

Rock on!

        
Comments

@Zero (August 03, 2007 at 2:37 AM)

I love SMB3! I played that all the time when I was 5. Thanks for bringin' back sweet memories.


@eddhead (August 04, 2007 at 3:43 PM)

I know what you're saying. SMB3 is probably on my top 3 Favorite games ever.


@Vance (August 05, 2007 at 7:01 PM)

e------------
B------------
G------0-----
D---3----2---
A------------
E------------

Doesn't sound right. The rest is nice, though. Good job.


@nyronic (August 24, 2007 at 12:31 AM)

Awesome man! I forgot about the requests I made and just now came back and checked on it.

Thanks =D


@herpies (June 06, 2008 at 12:34 AM)

dude the tb is awsome