Gametabs
Home
Tabs
Random

Kings' theme

Average rating: 3.000

1 ratings

Composer:

Tabber:

Style:

Instrument:

Created: October 25, 2008 at 12:00 AM

            Game: Super Mario Bros. 3
Song: Kings' theme
Composed by: Koji Kondo
Tabbed by: Not So Great Juja (Paul Horses)

Key:
~ = vibrato
p = pull-off
h = hammer-on
b = bend
/ = slide
pm = palm-mute
tr = tremolo picking


This is usually two separate parts, but
I tabbed them together


e|-12-10-8----8-----------------|
B|---------12---8-10-8----------|
G|---------------------9----7-9-|
D|-----------------------10-----|
A|------------------------------|
E|------------------------------|





Here's the bass.

G|------------------------------|
D|-------5---3------------------|
A|-3---------------0--2--3------|
E|------------------------------|

        
Comments

No comments yet