Gametabs
Home
Tabs
Random

Versus Wart (Final Battle)

Average rating: 5.000

1 ratings

Composer:

Tabber:

Style:

Instrument:

Created: May 09, 2009 at 12:00 AM

            Versus Wart (Final Battle)
Super Mario Bros 2/Doki Doki Panic

Composed by Koji Kondo
Tabbed by kevinsano (special thanks to auriplane)

May 9th 2009


Guitar 1

      Q.     Q.     Q       Q.     Q.     Q       Q.     Q.     Q     
E||---6------5-----------|--5------4-----------|--4------3-----------|
B||-----------------6----|----------------5----|----------------4----|
G||----------------------|---------------------|---------------------|
D||----------------------|---------------------|---------------------|
A||----------------------|---------------------|---------------------|
E||----------------------|---------------------|---------------------|


  E  H        Q.        Q.     Q.     Q       Q.     Q.     Q     
--2--1--------L------|--8------7-----------|--7------6-----------|
---------------------|----------------8----|----------------7----|
---------------------|---------------------|---------------------|
---------------------|---------------------|---------------------|
---------------------|---------------------|---------------------|
---------------------|---------------------|---------------------|


  Q.     Q.     Q       E  H        Q.        E  E  E  E  E  E  E  E   
--6------5-----------|--5--4--------L------|--------------------------|
----------------6----|---------------------|--4--3--4--3--4--3--4--3--|
---------------------|---------------------|--------------------------|
---------------------|---------------------|--------------------------|
---------------------|---------------------|--------------------------|
---------------------|---------------------|--------------------------|


  E  E  E  E  E  E  E  E     E  E  E  E  E  E  E  E   
--------------------------|--------------------------|
--5--4--5--4--5--4--5--4--|--6--5--6--5--6--5--6--5--|
--------------------------|--------------------------|
--------------------------|--------------------------|
--------------------------|--------------------------|
--------------------------|--------------------------|


  E  E  E  E  E  E  E  E     
---------------------------||
--7--6--7--6--7--6--7--6---||
---------------------------||
---------------------------||
---------------------------||
---------------------------||

Guitar 2

       Q.      Q.      Q        Q.      Q.      Q        Q.      Q.      Q     
E||---15------14------------|--14------13------------|--13------12------------|
B||-------------------15----|------------------14----|------------------13----|
G||-------------------------|------------------------|------------------------|
D||-------------------------|------------------------|------------------------|
A||-------------------------|------------------------|------------------------|
E||-------------------------|------------------------|------------------------|


   E   H        Q.         Q.      Q.      Q        Q.      Q.      Q     
--11--10--------L------|--17------16------------|--16------15------------|
-----------------------|------------------17----|------------------16----|
-----------------------|------------------------|------------------------|
-----------------------|------------------------|------------------------|
-----------------------|------------------------|------------------------|
-----------------------|------------------------|------------------------|


   Q.      Q.      Q        E   H        Q.      
--15------14------------|--13--12--------L------|
------------------15----|-----------------------|
------------------------|-----------------------|
------------------------|-----------------------|
------------------------|-----------------------|
------------------------|-----------------------|


   E   E   E   E   E   E   E   E      E   E   E   E   E   E   E   E   
--11--10--11--10--11--10--11--10--|--12--11--12--11--12--11--12--11--|
----------------------------------|----------------------------------|
----------------------------------|----------------------------------|
----------------------------------|----------------------------------|
----------------------------------|----------------------------------|
----------------------------------|----------------------------------|


   E   E   E   E   E   E   E   E      E   E   E   E   E   E   E   E     
--13--12--13--12--13--12--13--12--|--14--13--14--13--14--13--14--13---||
----------------------------------|-----------------------------------||
----------------------------------|-----------------------------------||
----------------------------------|-----------------------------------||
----------------------------------|-----------------------------------||
----------------------------------|-----------------------------------||




Duration Legend
---------------
W - whole
H - half
Q - quarter
E - 8th
S - 16th
T - 32nd
X - 64th
. - note dotted
|-n-|  - n-tuplets


Tablature Legend
----------------
L - tied note
        
Comments

No comments yet