Gametabs
Home
Tabs
Random

Underworld

Average rating: 3.000

2 ratings

Composer:

Tabber:

Style:

Instrument:

Created: September 01, 2008 at 12:00 AM

            e-4-5-4-3-8-6---4-6----------
B-------------6-----4-6------
G-----------------------5-7-8
D----------------------------
A----------------------------
E----------------------------

Harmony Melody -

e----------------------------
B-4-5-4-3-6-4---4-6----------
G-------------5-----3-5------
D-----------------------3-5-6
A----------------------------
E----------------------------

Bassline-
(played on lead or bass)

G-------2-3-----------2-1-------------1-------------1-------------1-------------1----
D-----3-----3-------3-----3-------3-----3-------3-----3-------3-----3-------3-----3--
A---3---------3---3---------3---3---3-----3---3---3-----3---3---3-----3---3---3-----3
E-1-------------1-------------1-------------1-------------1-------------1------------

        
Comments

No comments yet