Gametabs
Home
Tabs
Random

Overworld

Average rating: 4.467

15 ratings

Composer:

Tabber:

Style:

Instrument:

Created: September 30, 2007 at 12:00 AM

            Bass
     E  S S S S S S S S S S    S E  S E  S E  S E     S E  S E  S E  S E
G||-------------------------|-----------------0----|-------0---------0----|
D||-----2-1---0-------------|-------0--------------|----------------------|
A||-------------2-----------|----------------------|--3---------3---------|
E||-----------------3-1---0-|--0-------------------|----------------------|

  S E  S E  S E  S E     S E  S E  S E  S E     S E  S E  S E  S E
-------0---------0----|-------0---------0----|-------0---------0----|
----------------------|----------------------|----------------------|
--2---------2---------|--1---------1---------|--0---------0---------|
----------------------|----------------------|----------------------|

  S E  S E  S E  S E     S E  S E  S E  S E     S E  S E  S E  S E
----------------------|-----------------2----|----------------------|
-------3---------4----|-------5--------------|--0----3---------0----|
----------------------|------------0---------|----------------------|
--1---------2---------|--3-------------------|------------3---------|

  S E  S E  E  Q       S E  S E  S E  S E     S E  S E  S E  S E
--------------------|-----------------0----|--2----0--------------|
--------------------|-------0----2---------|------------2---------|
--3---------3-------|--3-------------------|-----------------3----|
-------3------------|----------------------|----------------------|

  S E  S E  S E  S E     S S S S E  S E  S E     S E  S E  S E  S E
----------------------|-----------------------|----------------------|
--0----2----4---------|--0---2----------------|-------5----3----0----|
-----------------0----|--------3----2----0----|----------------------|
----------------------|-----------------------|--3-------------------|

  S E  S E  S E  S E     S E  S E  S E  S E     S S S S E  S E  S E
----------------------|----------------------|-----------------------|
----------------------|------------0----1----|--2--------------------|
--2---------0----2----|--3----4--------------|------2-0---------2----|
-------3--------------|----------------------|-------------3---------|

  S E  S E  S E  S E     S E  S E  S E  S E     S E  S E  S E  S E
-----------------0----|--2----0--------------|----------------------|
-------0----2---------|------------2---------|--0----2----4---------|
--3-------------------|-----------------3----|-----------------0----|
----------------------|----------------------|----------------------|

  S S S S E  S E  S E     S E  S E  S E  S E     S E  S E  S E  S E
-----------------------|----------------------|----------------------|
--0---2----------------|-------5----3----0----|----------------------|
--------3----2----0----|----------------------|--2---------0----2----|
-----------------------|--3-------------------|-------3--------------|

  S E  S E  S E  S E     E  Q    E  Q       S E  S E  S E  S E
----------------------|------------------|----------------------|
----------------------|------------------|-------9----6---------|
--3---------0----2----|--3-------3-------|--7--------------8----|
-------3--------------|------------------|----------------------|

  S E  S E  S E  S E     S E  S E  S E  S E     S E  S E  S E  S E
----------------------|----------------------|----------------------|
-------0--------------|-----------------0----|--2-------------------|
--7---------2---------|--0----2----3---------|-------3----2----0----|
-----------------4----|----------------------|----------------------|

  S E  S E  S E  S E     S E  S E  S E  S E     S E  S E  S E  S E
-----------------2----|----------------------|--0-------------------|
--0----2----4---------|--0---------0----4----|-------3----0---------|
----------------------|-------0--------------|-----------------2----|
----------------------|----------------------|----------------------|

  S E  S E  S E  S E     S E  S E  S E  S E     S E  S E  S E  S E
----------------------|-------0---------0----|-------0---------0----|
--0-------------------|----------------------|----------------------|
-------2----0---------|--3---------3---------|--2---------2---------|
-----------------3----|----------------------|----------------------|

  S E  S E  S E  S E     S E  S E  S E  S E     S E  S E  S E  S E
-------0---------0----|-------0---------0----|----------------------|
----------------------|----------------------|-------3---------4----|
--1---------1---------|--0---------0---------|----------------------|
----------------------|----------------------|--1---------2---------|

  S E  S E  S E  S E     S E  S E  S E  S E     S E  S E  E  Q
-----------------2----|----------------------|--------------------||
-------5--------------|--0----3---------0----|--------------------||
------------0---------|----------------------|--3---------3-------||
--3-------------------|------------3---------|-------3------------||

Duration Legend
---------------
W - whole
H - half
Q - quarter
E - 8th
S - 16th
T - 32nd
X - 64th
. - note dotted
|-n-|  - n-tuplets

        
Comments

@jclutch55 (February 20, 2007 at 1:28 AM)

Dude Great Job Keep it up. I'll keep any tabs by you bookmarked, They're perfect!!!!


@Andres Lujan (March 20, 2007 at 2:46 PM)

hey man dude you did a very good job with this i hope i do more. Man i love this song thank you for taking the time to tab it out. I appreciate the dedication you are taking on video games as a fellow guitarist i commend you well you know my e-mail send me a message so we can talk and stuff.


@sweatpantsninja (April 02, 2007 at 6:55 AM)

for real, you don't often see tabs that are so precisely accurate that you have not an approximation of the song, but the exact song itself. job well done!


@archard (April 02, 2007 at 3:27 PM)

Yeah CalebElijah is a machine.


@archard (June 01, 2007 at 6:22 AM)

I'm slightly confused on the tremolo picking parts. Anyone want to explain exactly what to do?


@Badass (July 12, 2007 at 3:00 AM)

Archard i think you just gotta keep a steady tempo i dont really tap it coz ive got big hands so i just hammer and pull off but find whats good for you


@Vaporfarts (November 17, 2007 at 3:43 AM)

best tab for this song ive ever seen thank you


@Ben (February 23, 2008 at 5:38 PM)

good, but what does L mean?


@Zelos (February 23, 2008 at 5:48 PM)

L means "Hold". So an L after a 8 would mean that you need to hold the 8.


@yoshistrings (April 20, 2008 at 4:37 PM)

flawless!