Gametabs
Home
Tabs
Random

Slider

Average rating: 5.000

1 ratings

Composer:

Tabber:

Style:

Instrument:

Created: January 09, 2022 at 12:00 AM

            "Slider" - Super Mario 64
Composers : Koji Kondo
Arrangement : judgexii
Tuning : Standard EADGBe
BPM : 175 (4/4 time)

   Intro
   h        h                    e  e  e  e  e  e  e  e
e-----------------------------|-----------------------------||
B--5--------5-----------------|--5--5--2--2-----------------||
G--2--------2-----------------|--2--2--2--2--4--4--3--3-----||
D-----------------------------|-----------------------------||
A--0--------0-----------------|--0-----0-----0-----0--------||
E-----------------------------|-----------------------------||
   
   Part 1
   q    q    q    q              e  e  e  e  q    e  e         q    q    q    q              e  e  e  e  q    e  e                                      
e-----------------------------|--------------2----0---------|------------0----------------|-----------------------------|
B-----------------------------|--3--3--2--3--1----1--3------|--0---------0----3-----------|--0--0-----0--3----2--0------|
G--2--------/4----2-----------|--2--------------------------|--0--------------0-----------|--0-----3-----1----1---------|
D--0----0----0----0-----------|--0-----0-----0----0---------|-----------------------------|-----------------------------|
A-----------------------------|-----------------------------|-----------------------------|--------------2----2---------|
E-----------------------------|-----------------------------|--3----3----3----3-----------|--3-----3--------------------|

   q    e  e  q    q             q    e e  e  e  q             q    e e  e  e  q             q    q    q    q
e------------------5----------|---------------5-------------|---------------5-------------|--0--------------------------|
B------------------3----------|---------------4-------------|---------------5-------------|--2--------------------------|
G--2-------2------------------|-------2p1--2----------------|-------2\1--2----------------|--2----2----1----0-----------|
D--0----0-----0----0----------|--1----1----1-----1----------|--2----2----2------2---------|--2--------------------------|
A-----------------------------|-----------------------------|-----------------------------|-----------------------------|
E-----------------------------|-----------------------------|-----------------------------|-----------------------------|

   q    q    q    q              q    e e  q    e e            q    q    q    q              q    e e  q    e e                                    
e-----------------------------|-----------------------------|------------0----------------|-----------------------------|
B--3--------------------------|--1---------1----------------|--0---------0----3-----------|--0----0h2--3----2p0---------|
G------------4----2-----------|--2--------------------------|--0--------------0-----------|--1----1----1----1-----------|
D--4---------0----0-----------|--0----0h2--4----2p0---------|-----------------------------|-----------------------------|
A--5----5---------------------|-----------------------------|-----------------------------|--2----2----2----2-----------|
E-----------------------------|-----------------------------|--3----3----3----3-----------|-----------------------------|

							       Part 1 Ending 1
   e  e  q    q    q             q    q    q    q              q    q    q    q              q    q    q    q
e-----------------------------|--5--------------0-----------|-----------------------------|-----------------------------||
B-----------------------------|--2--------------2-----------|--3----3----3----3-----------|--3----3----3----3-----------||
G-----2-------2---------------|------------2----------------|--2----2----2----2-----------|--2----2----2----2-----------||
D-----2-------2---------------|-----------------------------|--0----0---------------------|-----------------------------||
A--0-----0----0----0----------|--0----2----3----4-----------|------------3----3-----------|--2----2----1----1-----------||
E-----------------------------|-----------------------------|-----------------------------|-----------------------------|| Back to Part 1


   Part 1 Ending 2
   q    q    q    q              e  e  e  e  e  e  e  e        
e-----------------------------|--------------0--2--3--5-----||
B--3--------------------------|-----3--2--3--1--1-----------||
G--2--------------------------|-----------------------------||
D--0----0----0----0-----------|--0-----0-----0-----0--------||
A-----------------------------|-----------------------------||
E-----------------------------|-----------------------------|| To Part 2

   Part 2
   q    q    q    q              q    q    q    q              q    q    q    q              q    q    e  e  e  e
e-----------------------------|-----------------------------|-----------------------------|-----------------------------|
B--0--------------------------|------------0----------------|--3---------3----------------|--3------------------2-------|
G--0---------3----------------|--2--------------------------|--0---------2----------------|---------------2--4----------|
D------------0----------------|--0----0----0----4-----------|-----------------------------|--4---------------0----------|
A-----------------------------|-----------------5-----------|--2----2----1----1-----------|--5----5----5----------------|
E--3----3----3----3-----------|-----------------------------|-----------------------------|-----------------------------|

   q    q    e  e  e  e          q    q    q    q              q    q    q    q              q    q    q    q 
e---------------------0-------|--2--------------2-----------|--0--------------------------|-----------------------------||
B--3------------2--3----------|--3--------------3-----------|--0---------3----2-----------|--3--------------------------||
G--0------------1--1----------|------------2----------------|------------2----0-----------|--2--------------------------||
D-----------------------------|------------0----0-----------|-----------------------------|--0----0----0----0-----------||
A------------2-----2----------|--0----0---------------------|------------0----0-----------|-----------------------------||
E--3----3---------------------|-----------------------------|--3----3---------------------|-----------------------------||


   Part 3
   q    q    e  q.               e  e  q    e  q.              q    q    e  q.               e  e  q    e  q.
e-----------------------------|-----------------------------|-----------------------------|-----------------------------|
B-------3----3--3-------------|-----3--3----3--3------------|-------3----3--3-------------|-----3--3----3--3------------|
G-------2----2--2-------------|-----2--2----2--2------------|-------4----4--4-------------|-----4--4----4--4------------|
D-------0----0--0-------------|-----0--0----0--0------------|-------3----3--3-------------|-----3--3----3--3------------|
A-----------------------------|-----------------------------|-------5----5--5-------------|-----5--5----5--5------------|
E-----------------------------|-----------------------------|-----------------------------|-----------------------------|
 
   h        h                    q    q    q    q              h        h                    q.      e q    q
e-/5-------/5-----------------|-/5----2---------------------|-----------------------------|-----------------------------|
B-/3-------/3-----------------|-/3----3----5----4-----------|-/3-------/3-----------------|-/3-------2/3----5-----------|
G-----------------------------|-----------------------------|-/4-------/4-----------------|-/4-------3/4----4-----------|
D--0--------0-----------------|--0----0----0----------------|-----------------------------|-----------------------------|
A-----------------------------|-----------------------------|-----------------------------|-----------------------------|
E-----------------------------|-----------------------------|--3--------3-----------------|--3---------3----------------|

   q    e  e  q    q             q    q    s s s s e  e        e  s s e  s s s s s s s s s s    s s s s s s s s s s s s s s s s
e-------------2----5----------|--4----5----4h5h2------------|--------------0-2\1/2h3/5p4p3p0-|-------h5-------5-----------------||
B--3----3--3--3----3----------|--3----3----------3p2--------|--0----2h3----------------------|--3p2h3---2\1/2---2\1p0-----------||
G--2----2--2--2----2----------|--2----2---------------2-----|--------------------------------|------------------------3\2p1p0---||
D--0----0--0--0----0----------|--0----0---------------------|--------------------------------|-------------------------------h2-||
A-----------------------------|-----------------------------|--------------------------------|----------------------------------||
E-----------------------------|-----------------------------|--------------------------------|----------------------------------|| Back to Part 1


Note Legend
-----------
w - whole
h - half
q - quarter
e - eighth
. - dotted

Tab Legend
-----------
() - continue holding note
h - hammer on
p - pull off
/ - slide up
\ - slide down
<> - natural harmonic
^ - brush up
        
Comments

@judgexii (February 28, 2022 at 4:08 PM)

"Slider" - Super Mario 64
Composers : Koji Kondo
Arrangement : judgexii
Tuning : Standard EADGBe
BPM : 175 (4/4 time)

Intro
h        h                    e  e  e  e  e  e  e  e
e-----------------------------|-----------------------------||
B-/5-------/5-----------------|-/5--5--2--2-----------------||
G-/2-------/2-----------------|-/2--2--2--2--4--4--3--3-----||
D-----------------------------|-----------------------------||
A--0--------0-----------------|--0-----0-----0-----0--------||
E-----------------------------|-----------------------------||

Part 1
q    q    q    q              e  e  e  e  q    e  e         q    q    q    q              e  e  e  e  q    e  e
e-----------------------------|--------------2----0---------|------------0----------------|-----------------------------|
B-----------------------------|--3--3--2--3--1----1--3------|--0---------0----3-----------|--0--0-----0--3----2--0------|
G--2--------/4----2-----------|--2--------------------------|--0--------------0-----------|--0-----3-----1----1---------|
D--0----0----0----0-----------|--0-----0-----0----0---------|-----------------------------|-----------------------------|
A-----------------------------|-----------------------------|-----------------------------|--------------2----2---------|
E-----------------------------|-----------------------------|--3----3----3----3-----------|--3-----3--------------------|

q    e  e  q    q             q    e e  e  e  q             q    e e  e  e  q             q    q    q    q
e------------------5----------|---------------5-------------|---------------5-------------|--0--------------------------|
B------------------3----------|---------------4-------------|---------------5-------------|--2--------------------------|
G--2-------2------------------|-------2p1--2----------------|-------2\1--2----------------|--2----2----1----0-----------|
D--0----0-----0----0----------|--1----1----1-----1----------|--2----2----2------2---------|--2--------------------------|
A-----------------------------|-----------------------------|-----------------------------|-----------------------------|
E-----------------------------|-----------------------------|-----------------------------|-----------------------------|

q    q    q    q              q    e e  q    e e            q    q    q    q              q    e e  q    e e
e-----------------------------|-----------------------------|------------0----------------|-----------------------------|
B--3--------------------------|--1---------1----------------|--0---------0----3-----------|--0----0h2--3----2p0---------|
G------------4----2-----------|--2--------------------------|--0--------------0-----------|--1----1----1----1-----------|
D--4---------0----0-----------|--0----0h2--4----2p0---------|-----------------------------|-----------------------------|
A--5----5---------------------|-----------------------------|-----------------------------|--2----2----2----2-----------|
E-----------------------------|-----------------------------|--3----3----3----3-----------|-----------------------------|

Part 1 Ending 1
e  e  q    q    q             q    q    q    q              q    q    q    q              q    q    q    q
e-----------------------------|--5--------------0-----------|-----------------------------|-----------------------------||
B-----------------------------|--2--------------2-----------|--3----3----3----3-----------|--3----3----3----3-----------||
G-----2-------2---------------|------------2----------------|--2----2----2----2-----------|--2----2----2----2-----------||
D-----2-------2---------------|-----------------------------|--0----0---------------------|-----------------------------||
A--0-----0----0----0----------|--0----2----3----4-----------|------------3----3-----------|--2----2----1----1-----------||
E-----------------------------|-----------------------------|-----------------------------|-----------------------------|| Back to Part 1

Part 1 Ending 2
q    q    q    q              e  e  e  e  e  e  e  e
e-----------------------------|--------------0--2--3--5-----||
B--3--------------------------|-----3--2--3--1--1-----------||
G--2--------------------------|-----------------------------||
D--0----0----0----0-----------|--0-----0-----0-----0--------||
A-----------------------------|-----------------------------||
E-----------------------------|-----------------------------|| To Part 2

Part 2
q    q    q    q              q    q    q    q              q    q    q    q              q    q    e  e  e  e
e-----------------------------|-----------------------------|-----------------------------|-----------------------------|
B--0--------------------------|------------0----------------|--3---------3----------------|--3------------------2-------|
G--0---------3----------------|--2--------------------------|--0---------2----------------|---------------2--4----------|
D------------0----------------|--0----0----0----4-----------|-----------------------------|--4---------------0----------|
A-----------------------------|-----------------5-----------|--2----2----1----1-----------|--5----5----5----------------|
E--3----3----3----3-----------|-----------------------------|-----------------------------|-----------------------------|

q    q    e  e  e  e          q    q    q    q              q    q    q    q              q    q    q    q
e---------------------0-------|--2--------------2-----------|--0--------------------------|-----------------------------||
B--3------------2--3----------|--3--------------3-----------|--0---------3----2-----------|--3--------------------------||
G--0------------1--1----------|------------2----------------|------------2----0-----------|--2--------------------------||
D-----------------------------|------------0----0-----------|-----------------------------|--0----0----0----0-----------||
A------------2-----2----------|--0----0---------------------|------------0----0-----------|-----------------------------||
E--3----3---------------------|-----------------------------|--3----3---------------------|-----------------------------||

Part 3
q    q    e  e  q             e  e  q    e  e  q            q    q    e  e  q             e  e  q    e  e  q
e-----------------------------|-----------------------------|-----------------------------|-----------------------------|
B-------3----3--3-------------|-----3--3----3--3------------|-------3----3--3-------------|-----3--3----3--3------------|
G-------2----2--2-------------|-----2--2----2--2------------|-------4----4--4-------------|-----4--4----4--4------------|
D--0----0----0-----0----------|--0-----0----0-----0---------|-------3----3--3-------------|-----3--3----3--3------------|
A-----------------------------|-----------------------------|--5----5----5-----5----------|--5-----5----5-----5---------|
E-----------------------------|-----------------------------|-----------------------------|-----------------------------|

q    q    q    q              q    q    q    q              q    q    q    q              q    e  e  q    q
e-/5--------/5----------------|-/5----2---------------------|-----------------------------|-----------------------------|
B-/3--------/3----------------|-/3----3----5----4-----------|-/3--------/3----------------|-/3-------2-/3----5----------|
G-----------------------------|-----------------------------|-/4--------/4----------------|-/4-------3-/4----4----------|
D--0----0----0----0-----------|--0----0----0----0-----------|-----------------------------|-----------------------------|
A-----------------------------|-----------------------------|-----------------------------|-----------------------------|
E-----------------------------|-----------------------------|--3----3----3----3-----------|--3----3-----3----3----------|

q    e  e  q    q             q    q    s s s s e  e        e  s s e  s s s s s s s s s s    s s s s s s s s s s s s s s s s
e-------------2----5----------|--4----5----4h5h2------------|--------------0-2\1/2h3/5p4p3p0-|-------h5-------5-----------------||
B--3----3--3--3----3----------|--3----3----------3p2--------|--0----2h3----------------------|--3p2h3---2\1/2---2\1p0-----------||
G--2----2--2--2----2----------|--2----2---------------2-----|--0------0------0-------0-------|------------------------3\2p1p0---||
D--0----0-----0----0----------|--0----0----0-------0--------|--------------------------------|-------------------------------h2-||
A-----------------------------|-----------------------------|--------------------------------|--0-------0-------0-------0-------||
E-----------------------------|-----------------------------|--------------------------------|----------------------------------|| Back to Part 1

Note Legend
-----------
w - whole
h - half
q - quarter
e - eighth
. - dotted

Tab Legend
-----------
() - continue holding note
h - hammer on
p - pull off
/ - slide up
\ - slide down
<> - natural harmonic
^ - brush up