Gametabs
Home
Tabs
Random

Slider

Average rating: 5.000

2 ratings

Composer:

Tabber:

Style:

Instrument:

Created: August 14, 2011 at 12:00 AM

            Slider
Super Mario 64
Nintendo 64
Tabbed by John Adams
Composed by Koji Kondo
8/9/2011


e||--12--12--12-------------||--------------------------------------------------------------------|
B||--------------14--12-----||----------12--------------------------------------------------------|
G||----------------------15-||*--14--14----14------------------------------14--------14-----14----|
D||-------------------------||*---------------12---------14-12---------------------------------14-|
A||-------------------------||---------------------14-14-------14---12-12-----12-12-----12--------|
E||-------------------------||--------------------------------------------------------------------|

-------------------------12------------------------------|
--------12----13---12-12----15-12------------------------|
--11-11----14-----------------------14-14----14----------|
---------------------------------------------------14-12-|
------------------------------------------12----12-------|
---------------------------------------------------------|

----------------------------------------------------------------|
------12--------------------------------------------------------|
--14-----14------------------------------14--------14-----14----|
------------12---------14-12---------------------------------14-|
-----------------14-14-------14---12-12-----12-12-----12--------|
----------------------------------------------------------------|

-------------------------12------------------------------|
--------12----13---12-12----15-12------------------------|
--11-11----14-----------------------14-14----14----------|
---------------------------------------------------14-12-|
------------------------------------------12----12-------|
---------------------------------------------------------|

----------------------------------------------------------------------------12-14-----14-12----------|
----------------------------12-11----12---------------------12-14-15--14-15-----------------15-14-15-|
------------------11-12-14--------14----11-12--14--11----14-----------------------14-----------------|
--12-11-12-14----------------------------------------------------------------------------------------|
-----------------------------------------------------------------------------------------------------|
-----------------------------------------------------------------------------------------------------|

-----------------------------------------------------------------------|
-----------------------------------------------------------------------|
-----------------------------------------------------14----------------|
--12-12-12-12-16-12-12-12-12-16-12-12-12-12-16-12-12----12-12-16-12-12-|
-----------------------------------------------------------------------|
-----------------------------------------------------------------------|

-----------------------------------------------------------------------|
-----------------------------------------------------------------------|
-----------------------------------------------------14----------------|
--12-12-12-12-16-12-12-12-12-16-12-12-12-12-16-12-12----12-12-16-12-12-|
-----------------------------------------------------------------------|
-----------------------------------------------------------------------|

---------------------------------------------------------------------------------------|
---------------------------------------------------------------------------------------|
--14--14--14-11--------------------------------------11-14--13--14--13-14-13-----------|
----------------14-13-12--12--12-12-11-12--14-12--12-------------------------12-11-----|
------------------------------------------------------------------------------------12-|
---------------------------------------------------------------------------------------|

----------------------------------------------------------------------------------------------||
----------------------------------------------------------------------------------------------||
----------------------11-10-11-12-14-13-12-------------14---------14-------------------------*||
---------11-12--12-14----------------------14------------------------------------------------*||
--14--14--------------------------------------17-16-17----16-15-16---16-15-14-13--------------||
---------------------------------------------------------------------------------17-16-15-12--||

        
Comments

No comments yet