Gametabs
Home
Tabs
Random

Piranha Plant's Lullaby

Average rating: 4.900

20 ratings

Composer:

Tabber:

Style:

Instrument:

Created: January 22, 2010 at 12:00 AM

                     Super Mario 64 - Piranha Plant's Lullaby
                  Composed by Koji Kondo
        
         Arranged by Auriplane ([email protected])


Standard tuning, capo on 3.  Downstrokes are not marked,
because I thought it was easier to read without them, but 
occur on essentially every downbeat.  See the GP5 or PDF,
if you like.



        Part A


   H.           H.           H.           H       Q    
e |4-----------|2-----------|------------|------------|
B |2-----------|4-----------|4-----------|0-----------|
G |------------|------------|4-----------|1-------1---|
D |2-----------|4-----------|6-----------|2-----------|
A |0-----------|2-----------|------------|4-----------|
E |------------|------------|4-----------|------------|


   Q   Q   Q    H       E E  H.           Q   Q   Q
e |--------4---|2-----------|------------|------------|
B |----2-------|4-------2h4-|0-----------|------------|
G |2-----------|2-----------|1-----------|--------1---|
D |4-----------|------------|2-----------|2---4-------|
A |------------|2-----------|------------|------------|
E |2-----------|------------|------------|------------|


   H.           H.           H.           H       Q    
e |4-----------|2-----------|7-----------|0-----------|
B |2-----------|4-----------|4-----------|2-----------|
G |------------|------------|4-----------|--------1---|
D |2-----------|4-----------|------------|2-----------|
A |0-----------|2-----------|------------|4-----------|
E |------------|------------|4-----------|------------|


   Q   Q   Q    H       E E  H       E E  H.
e |--------4---|2-----------|0-----------|------------|
B |----2-------|4-------2h4-|0-----------|------------|
G |2-----------|2-----------|1---------1-|------------|
D |4-----------|------------|--------4---|2-----------|
A |------------|2-----------|------------|------------|
E |2-----------|------------|0-----------|L-----------|


        Part B


   H.           H.           H.           H       Q    
e |4-----------|2-----------|------------|------------|
B |2-----------|4-----------|4-----------|0-----------|
G |------------|------------|4-----------|1-------1---|
D |2-----------|4-----------|6-----------|2-----------|
A |0-----------|2-----------|------------|4-----------|
E |------------|------------|4-----------|------------|


   Q   Q   Q    H       E E  H.           H       Q
e |--------4---|2-----------|------------|------------|
B |----2-------|4-------2h4-|0-----------|------------|
G |2-----------|2-----------|1-----------|--------1---|
D |4-----------|------------|2-----------|2-----------|
A |------------|2-----------|------------|------------|
E |2-----------|------------|------------|------------|


   H.           H.           H.           H       Q    
e |4-----------|2-----------|7-----------|0-----------|
B |2-----------|4-----------|4-----------|2-----------|
G |------------|------------|4-----------|--------1---|
D |2-----------|4-----------|------------|2-----------|
A |0-----------|2-----------|------------|4-----------|
E |------------|------------|4-----------|------------|


   Q   Q   Q    H       E E  H       E E  H.
e |--------4---|2-----------|0-----------|------------|
B |----2-------|4-------2h4-|0-----------|------------|
G |2-----------|2-----------|1---------1-|------------|
D |4-----------|------------|--------4---|2-----------|
A |------------|2-----------|------------|------------|
E |2-----------|------------|0-----------|L-----------|


        Part C


   E E E E E E  E E H        E E E E E E  E E H        
e |4-4-4-4-4-4-|4-4-2-------|------------|2-2-0-------|
B |2-----------|4---4-------|7-7-7-7-7-7-|0-----------|
G |------------|------------|4-----------|----1-------|
D |2-----------|4-----------|------------|2-----------|
A |0-----------|2-----------|6-----------|4-----------|
E |------------|------------|4-----------|------------|


   E E E E E E  E E Q   Q    Q   H        Q   Q   Q
e |0-0-0-0-0-0-|0-0---------|------------|------------|
B |------------|----4---2---|----0-------|------------|
G |2-----------|----2-------|1-----------|------------|
D |4-----------|4-----------|----2-------|------------|
A |------------|2-----------|------------|------------|
E |2-----------|------------|0-----------|0---2---4---|


   E E E E E E  E E H        E E E E E E  E E H        
e |4-4-4-4-4-4-|4-4-2-------|5-5-5-5-5-5-|5-5-4-------|
B |2-----------|2-----------|4-----------|6-----------|
G |------------|------------|4-----------|4-----------|
D |2-----------|2-----------|------------|------------|
A |0-----------|0-----------|------------|4-----------|
E |------------|------------|4-----------|------------|


   E E E E E E  E E Q   Q    H.           H.
e |7-7-7-7-7-7-|7-7-----7---|9-----------|5-----------|
B |7-----------|7---10------|9-----------|4-----------|
G |7-----------|7-----------|9-----------|5-----------|
D |0-----------|0-----------|------------|------------|
A |------------|------------|------------|3-----------|
E |------------|------------|9-----------|------------|


        Part D


   H.           H.           H.           H       Q    
e |4-----------|2-----------|------------|------------|
B |2-----------|4-----------|4-----------|0-----------|
G |------------|------------|4-----------|1-------1---|
D |2-----------|4-----------|6-----------|2-----------|
A |0-----------|2-----------|------------|4-----------|
E |------------|------------|4-----------|------------|


   Q   Q   Q    H       E E  H.           Q   Q   Q
e |--------4---|2-----------|------------|------------|
B |----2-------|4-------2h4-|0-----------|------------|
G |2-----------|2-----------|1-----------|--------1---|
D |4-----------|------------|2-----------|2---4-------|
A |------------|2-----------|------------|------------|
E |2-----------|------------|------------|------------|


   H.           H.           H.           H       Q    
e |4-----------|2-----------|7-----------|0-----------|
B |2-----------|4-----------|4-----------|2-----------|
G |------------|------------|4-----------|--------1---|
D |2-----------|4-----------|------------|2-----------|
A |0-----------|2-----------|------------|4-----------|
E |------------|------------|4-----------|------------|


   Q   Q   Q    H       E E  H       E E  H.
e |--------4---|2-----------|0-----------|------------|
B |----2-------|4-------2h4-|0-----------|------------|
G |2-----------|2-----------|1---------1-|------------|
D |4-----------|------------|--------4---|2-----------|
A |------------|2-----------|------------|------------|
E |2-----------|------------|0-----------|L-----------|





Duration Legend
---------------
W - whole
H - half
Q - quarter
E - 8th
. - note dotted


Tablature Legend
----------------
L - tied note
h - hammer on



        
Comments

@Jamming Ninja (January 22, 2010 at 4:52 PM)

Such a good tab, I think I'm going to take a nap.


@Jacob31593 (January 22, 2010 at 9:04 PM)

XD


@Nemus (July 25, 2010 at 2:07 AM)

awesome!:D


@NickJonesSon (November 10, 2011 at 2:25 AM)

You did an awesome job on this.


@ametueraspirant (February 22, 2013 at 7:45 AM)

my fingers have officially left for greener pastures...


@xxtazy (March 06, 2015 at 5:31 PM)

I played this for my girlfriend and before the song was finished she was sleeping like a baby and snoring :) 5/5