Gametabs
Home
Tabs
Random

Overworld

Average rating: No ratings

Composer:

Tabber:

Style:

Instrument:

Created: March 28, 2012 at 12:00 AM

            Overworld
Super Mario 3D Land
Composed by Mahito Yokota
Tabbed by hslesperance
3/28/12


Standard Tuning

e-----------------------------------------------------------
B---13-10------10--13--10-----------13-10------10--11--12---
G----------12-------------12---------------12---------------
D-----------------------------------------------------------
A-----------------------------------------------------------
E-----------------------------------------------------------

e-----------------------------------------------------------
B---12-8------8--12--8----------12-8-----8--9--10-----------
G---------10-----------10------------10---------------------
D-----------------------------------------------------------
A-----------------------------------------------------------
E-----------------------------------------------------------

e------------------------------------------10--11--12-------
B---13-10------10--13--10-----------13-10--------------13---
G----------12-------------12--------------------------------
D-----------------------------------------------------------
A-----------------------------------------------------------
E-----------------------------------------------------------

e------10-----10------12----------------------12-10---------
B---13-----13-----13------13----------10--13---------13-----
G-----------------------------12---12-----------------------
D-----------------------------------------------------------
A-----------------------------------------------------------
E-----------------------------------------------------------

e------------------------------------13-17------------------
B---13---------------13----------13-------------------------
G-------15--14-13-14-----13--14-----------------------------
D-----------------------------------------------------------
A-----------------------------------------------------------
E-----------------------------------------------------------

e----------------------------12-15--------------------------
B------------13----------13---------------------------------
G---12-11-12-----11--12-------------------------------------
D-----------------------------------------------------------
A-----------------------------------------------------------
E-----------------------------------------------------------

e-------------------------------13--------------------------
B------------13---------------------------------------------
G------------------------14---------------------------------
D---15-14-15-----15--15------15-------14--15--16--17--------
A-----------------------------------------------------------
E-----------------------------------------------------------

e----------------------------13-17--------------------------
B------------13----------13---------------------------------
G---14-13-14-----13--14-------------------------------------
D-----------------------------------------------------------
A-----------------------------------------------------------
E-----------------------------------------------------------

e----------------------------13-17--------------------------
B------------13----------13---------------------------------
G---14-13-14-----13--14-------------------------------------
D-----------------------------------------------------------
A-----------------------------------------------------------
E-----------------------------------------------------------

e----------------------------------14-17\-------------------
B------------13--------13----13-16---------12--13--14--15---
G---14-13-14-----14-14----14--------------------------------
D-----------------------------------------------------------
A-----------------------------------------------------------
E-----------------------------------------------------------

\ - slide down

        
Comments

No comments yet