Gametabs
Home
Tabs
Random

Simon's Theme

Average rating: No ratings

Composer:

Tabber:

Style:

Instrument:

Created: January 31, 2009 at 12:00 AM

                        Super Castlevania IV - Simon's Theme BASS TAB
              Song by Sotaro Tojima and Masanori Oodachi

                Tabbed by auriplane ([email protected])

I divided each measure into halves, so you can see the rhythm a little 
easier.  I didn't use rhythm markers, but if anyone really wants me to 
I can go back and add them.

Five-string bass, standard tuning.


                       - Rest for 8 measures -
    Part A

G |----------------|----------------|----------------|----------------|
D |----------------|----------------|----------------|------------5---|
A |----------------|----------------|----------------|----------------|
E |3-------5-----1-|----------------|--------1-----3-|--------3-5---3-|
B |----------------|--------------1-|----------------|----------------|

G |----------------|----------------|----------------|----------------|
D |----------------|----------------|----------------|----------------|
A |----------------|----------------|----------------|----------------|
E |--------3-----1-|----1-----------|----------------|--------2---1---|
B |4---------------|--1-----3-----1-|----1---4-----3-|----3-----3-----|

G |----------------|----------------|----------------|----------------|
D |----------------|----------------|----------------|----------7-----|
A |----------------|----------------|----------------|----------------|
E |3-------5-----1-|----------------|--------1-----3-|--------5-------|
B |----3-----------|--------------1-|----------------|--------------4-|

G |----------------|----------------|----------------|----------------|
D |----------------|----------------|----------------|----------------|
A |----------------|----------------|----------------|----------------|
E |--------3-----1-|----1-----------|----------------|--------2---2---|
B |----4-----------|--1-----3-----1-|--------4-----3-|----3-----3-----|

    Part B

G |----------------|----------------|----------------|----------------|
D |----5---3-------|----------------|----------------|--------4-------|
A |----------------|6-------5-----4-|----5-----------|6---------------|
E |3---------------|----------------|----------------|--------------3-|
B |----------------|----------------|----------------|----------------|

G |----------------|----------------|----------------|----------------|
D |----5---3-------|----------------|----------------|--------4-------|
A |--5-------------|6-------5-----4-|----5-----------|6---------------|
E |----------------|----------------|----------------|----------------|
B |----------------|----------------|----------------|----------------|

G |----------------|----------------|----------------|----------------|
D |----5---3-------|----------------|----------------|--------4-------|
A |--5-------------|6-------5-----4-|----5-----------|6---------------|
E |3---------------|----------------|----------------|--------------3-|
B |----------------|----------------|----------------|----------------|

G |----------------|----------------|----------------|----------------|
D |----5---3-------|----------------|----------------|----------------|
A |--5-------------|6-------5-----4-|----5-----------|6-----6-8-6-----|
E |----------------|----------------|----------------|----------------|
B |----------------|----------------|----------------|----------------|

G |----------------|
D |----------------|
A |----------------|
E |----------------|
B |----------------|

    Part C

G |----------------|----------------|----------------|----------------|
D |----------------|----------------|----------------|----------------|
A |----------------|----------------|----------------|----------------|
E |3-3-1-3---3-----|----1---3-3-1-4-|--4-3-4---------|----1---3-1-3---|
B |----------------|----------------|----------------|----------------|

G |----------------|----------------|----------------|----------------|
D |----------------|----------------|----------------|----------------|
A |----------------|----------------|------1-----3---|----------------|
E |----------------|--1-----1-------|----3---------3-|--3---5---1-----|
B |4-4-3-4---------|4---1-----1-----|1-1-------------|4---------------|

G |----------------|----------------|----------------|----------------|
D |----------------|----------------|----------------|----------------|
A |----------------|----------------|----------------|------------1---|
E |3-3-1-3---3-----|----1---3-3-1-3-|4-4-3-4---------|----3---3-1-----|
B |----------------|----------------|----------------|----------------|

G |----------------|----------------|----------------|----------------|
D |----------------|----------------|----------------|------------3---|
A |----------------|----------------|--------0-1---3-|--5---3---------|
E |----------------|5-5-----5-------|3-----------1---|--------5-------|
B |4-4-3-4---------|----6-----6-----|----------------|----------3---3-|

    Rest for 4 bars.

    Part D    - REPEAT 2x -

G |----------------|----------------|----------------|----------------|
D |--------------5-|----------------|--------------5-|----------------|
A |--------5-------|--------5-------|--------5-------|--------5-------|
E |3---------------|--------------3-|----------------|--------------1-|
B |----------------|----------------|----------------|----------------|

G |----------------|----------------|----------------|----------------|
D |--------------5-|----------------|--------------3-|----------------|
A |--------3-------|--------3-------|--------3-------|--------3-------|
E |----------------|--------------1-|----------------|----------------|
B |----------------|----------------|----------------|----------------|

        
Comments

No comments yet