Gametabs
Home
Tabs
Random

Minstrelosity Fingerstyle

Average rating: 5.000

3 ratings

Composer:

Tabber:

Style:

Instrument:

Created: June 16, 2016 at 12:00 AM

            Minstrelosity
From Stronghold 2
Composed by Robert Euvino
Arranged by Austin Williams

Dropped D Tuning (DADGBE)
Capo on 5.

    E   E   E   S  S  E   E   E   E     E   E   E   S  S  E   E   E   E     E   E   E   S  S  E   E   E   E    
E||-------------------2---------------|-3--(3)-(3)--2--0------2-----------|-------------------2---------------|
B||-----5---5---3--5------3---5-------|-------------------3-------5-------|-----5---5---3--5------3---5--(5)--|
G||-4---------------------------------|-----------------------------------|-4---------------------------------|
D||---------2-----------------2-------|---------0-----------------2-------|---------2-----------------2-------|
A||-----2-------2---------2-------2---|-----0-------0---------2-------2---|-----2-------2---------2-------2---|
D||-2-----------------2---------------|-0-----------------2---------------|-2-----------------2---------------|


   S  S  E   E   E   E   E   E   E     E   E   E   S  S  E   E   E   E     E   E   E   S  S  E   E   E   E    
E|-7--5--3---2-----------3-----------|-------------------2-----------2---|-----3---3---2--3--5---3---2-------|
B|---------------5---3-------5-------|-----5---5---3--5------3---5-------|-------------------------------5---|
G|-----------------------------------|-4---------------------------------|-4---------------------------------|
D|-----------0---------------2-------|---------2-----------------0-------|---------2-----------------2-------|
A|-------0-------0-------2-------2---|-----2-------2---------0-------0---|-----2-------2---------2-------2---|
D|-0-----------------2---------------|-2-----------------0---------------|-2-----------------2---------------|

                                                                           h-         h-                            
   E   E   E   S  S  E   E   E   S  S    E   E   E   E   E   E   E   E     E      E   E      S   S  E  E   E   E    
E|-------------------2-----------2--3--|-5---7---5---3-------------------|-----------------------------------------|
B|-----5---5---3--5------3---5---------|-----------------5--(5)----------|-----------------------------3-----------|
G|-4-----------------------------------|-2---4---2---0-------------------|-3-4--------3-4--------4--2--------------|
D|---------2-----------------2---2--4--|---------0-------2--(2)--2-------|------------2--------------------4--(4)--|
A|-----2-------2---------2-------2-----|-----0-------0-------2-------2---|--------2----------2---------0---5---0---|
D|-2-----------------2-----------------|-0---------------2---------------|-2------------------------0--------------|

                                       h-         h-                              
   E   S  S  E   E   E   E   E   E     S S    E   S S    S  S  E   E   E   S  S   
E|-----------------------------------|-------------------------------------5--3--|
B|-----------------------------------|----------------------3--2-------5---------|
G|-----------2---4---2---------------|-3-4--------3-4--------------2-------2--0--|
D|-2---4--5--2-----------5---2--(2)--|------------2--------------------2---------|
A|-----2---------2-------2-------2---|--------2----------2---------2-------2-----|
D|-2-----------------2-------2-------|-2-----------------------2-----------------|

   E   E   E   E   E   E   E   E     
E|-2-----------3---0--(0)----------||
B|-----5---3-----------------------||
G|-------------0-------------------||
D|-4---2---0-------2--(2)--2-------||
A|-----0-------0-------2-------2---||
D|-0---------------2---------------||
        
Comments

No comments yet