Gametabs
Home
Tabs
Random

Scala

Average rating: 5.000

1 ratings

Composer:

Tabber:

Style:

Instrument:

Created: February 24, 2017 at 12:00 AM

            SCALA – Theme of Rose, Street fighter Zero3/Alpha3
Composer:YUKI IWAI






E||-------------3-------3-----3-----|-------------3-------3-----3-----|
B||---------1-----------------------|---------1-----------------------|
G||-----2---------------------------|-----2---------------------------|
D||---------------------------------|---------------------------------|
A||-0-------0-------0-------0-------|---------------------------------|
E||---------------------------------|-1-------1-------1-------1-------|

E||-------------3-----3-------------|-5-0-----------------------------|
B||---------3---------------0-------|-----3-5-3-----------------------|
G||-----0---------------------------|-----------4-5-4-0-4-0-----------|
D||---------------------------------|-----------------------3-2-------|
A||---------------------------------|-0-------0-------0-------0-------|
E||-3-------3-------3-------3-------|---------------------------------|

E||-------------3-------3-----3-----|-------------3-------3-----3-----|
B||---------1-----------------------|---------1-----------------------|
G||-----2---------------------------|-----2---------------------------|
D||---------------------------------|---------------------------------|
A||-0-------0-------0-------0-------|---------------------------------|
E||---------------------------------|-1-------1-------1-------1-------|

E||------------3-------3------------|-5-0-----------------------------|
B||---------3---------------0-------|-----3-5-3-----------------------|
G||-----0---------------------------|-----------4-5-4-0-4-2---2-2-2-2-|
D||---------------------------------|---------------------------------|
A||---------------------------------|-0-------0-------0-------0-------|
E||-3-------3-------3-------3-------|---------------------------------|

E||---------------------------------|---------------------------------|
B||---------1-----3-----4-----------|---------1-----3---4-------------|
G||---------2-----2-----2-----------|---------2-----2---2-------------|
D||---------------------------------|---------------------------------|
A||-0---0---0---0-0---0-0---0-------|-0-0-0---0---0-0---0-0---0-------|
E||-----------------------------3---|-----------------------------3---|

E||---------------------------------|---------------------------------|
B||---------1-----3-----4-----------|---------1-----3---4-------------|
G||---------2-----2-----2-----------|---------2-----2---2-------------|
D||---------------------------------|---------------------------------|
A||-0---0---0---0-0---0-0---0-------|-0-0-0---0---0-0---0-0---0-------|
E||-----------------------------3---|-----------------------------3---|

E||---------------------------------|---------------------------------|
B||---------1-----3-----4-----------|---------1-----3---4-------------|
G||---------2-----2-----2-----------|---------2-----2---2-------------|
D||---------------------------------|---------------------------------|
A||-0---0---0---0-0---0-0---0-------|-0-0-0---0---0-0---0-0---0-------|
E||-----------------------------3---|-----------------------------3---|


E||---------------------------------|---------------------------------|
B||---------1-----3-----4-----------|---------1-----3---4-------------|
G||---------2-----2-----2-----------|---------2-----2---2-------------|
D||---------------------------------|---------------------------------|
A||-0---0---0---0-0---0-0---0-------|-0-0-0---0---0-0---0-0---0-------|
E||-----------------------------3---|-----------------------------3---|

E||-----------------0-----------3---|---------------------------------|
B||---------1---3-------------------|-------------1-------3-----------|
G||-----2---------------2-----------|-------------2-------2-----------|
D||---------------------------------|---------------------------------|
A||-0-------0-------0-------0-------|-0-------0-------0-------0-------|
E||---------------------------------|---------------------------------|

E||-----------------------------3---|--------3----2-------------------|
B||---------1---3---5---------------|---------------------------------|
G||-----2---------------2-----------|---------------------2-----2-----|
D||---------------------------------|---------------------5-----6-----|
A||-0-------0-------0-------0-------|-0-------0-------0-------0---0---|
E||---------------------------------|---------------------------------|

E||---------------------------------|---------------------------------|
B||-1-------------------------------|-3-------------------------------|
G||---------------------------------|---------------------------------|
D||---------------------------------|---------------------------------|
A||-0---0---0---0-0---0-0---0-------|-0-0-0---0---0-0---0-0---0-------|
E||-----------------------------3---|-----------------------------3---|

E||---------------------------------|---------------------------------|
B||-0-------------------------------|-1-------------------------------|
G||---------------------------------|---------------------------------|
D||---------------------------------|---------------------------------|
A||-0---0---0---0-0---0-0---0-------|-0-0-0---0---0-0---0-0---0-------|
E||-----------------------------3---|-----------------------------3---|

E||Turn back to the start-----------|---------------------------------|
B||---------------------------------|---------------------------------|
G||---------------------------------|---------------------------------|
D||---------------------------------|---------------------------------|
A||---------------------------------|---------------------------------|
E||---------------------------------|---------------------------------|

Thank you for your interest! Good luck!
Email:[email protected]
Youtube link for audio example:https://www.youtube.com/watch?v=cRJTzzjrDiw
Youtube link for original song:https://www.youtube.com/watch?v=EuS_bvQj--U
        
Comments

No comments yet