Gametabs
Home
Tabs
Random

Ken's Stage

Average rating: 5.000

1 ratings

Composer:

Tabber:

Style:

Instrument:

Created: January 17, 2010 at 12:00 AM

            Street Fighter II - Ken's Stage
Tabbed by LTRobson 16/06/07

Standard tuning
My underscores are palm-muting.

|-------------------------------------------------------|
|-------------------------------------------------------|
|-------------------------------------------------------|
|-10------------------10--8---8-\-6--6--------------6-6-|
|-8---------------10--8---6---6-\-4--4--------------4-4-|
|-----------------8-------------------------------------|

|-----------------------------------------------------------------|
|-----------------------------------------------------------------|
|-----------------------------------------------------------------|
|-3---3-3-3-3-3-3-3-3-3-3-3-3-3-3-5---5-5-5-5-5-5-5-5-5-5-5-5-5-5-|
|-1---1-1-1-1-1-1-1-1-1-1-1-1-1-1-3---3-3-3-3-3-3-3-3-3-3-3-3-3-3-|
|-----------------------------------------------------------------|
      - - - - - - - - - - - - - -     - - - - - - - - - - - - - - 


|-------------------------------------------------------------|
|---------11-9--8-----------------------11-9--8---------------|
|-----10----------10--10-8--10-------10----------10--10-8--10-|
|-10-----------------------------10---------------------------|
|-------------------------------------------------------------|
|-------------------------------------------------------------|

|------------8--9-8-----------8----------------------------------|
|---------11--------11---9-11-------11--11---9---8--9-8----------|
|-----10-------------------------------------------------8----10-|
|-10-------------------------------------------------------10----|
|----------------------------------------------------------------|
|----------------------------------------------------------------|

        
Comments

No comments yet