Gametabs
Home
Tabs
Random

Character Select

Average rating: 3.000

2 ratings

Composer:

Tabber:

Style:

Instrument:

Created: January 17, 2010 at 12:00 AM

            Street Fighter II - Character Select 
Tabbed by LTRobson 16/06/07

Drop-D tuning
          
|-----------------------------------------------|
|-----------------------------------------------|
|-------------------0-----------------------0---|
|------0---0------2---3-2--------0---0--------3-|
|----3---3----0-3---------3----3---3----0-3-----|
|-0-------------------------0-------------------|

|-----------------------------------------------|
|-----------------------------------------------|
|-------------------0-----------------------0-2-|
|------0---0------2---3-2--------0---0----------|
|----3---3----0-3---------3----3---3----0-3-----|
|-0-------------------------0-------------------|


|-----------------------------------------------|
|-----------------------------------------------|
|-----------------0-2-0---------------------0---|
|----2-3-2-3----2-------2------2-3-2-3----2---3-|
|-------------3-----------3-------------3-------|
|-0-------------------------0-------------------|

|-----------------------------------------------|
|-----------------------------------------------|
|-----------------0-2-0-----------------0-------|
|----2-3-2-3----2-------2------2-3-2-3----3---0-|
|-------------3-----------3-----------------3---|
|-0-------------------------0-------------------|

        
Comments

No comments yet