Gametabs
Home
Tabs
Random

Terran Theme #4

Average rating: No ratings

Composer:

Tabber:

Style:

Instrument:

Created: September 19, 2010 at 12:00 AM

            -------------------------------------------------------------------------------
			     STARCRAFT2 TERRAN THEME #4 - BLIZZARD
-------------------------------------------------------------------------------


Tabbed by: vuser86
Youtube: http://www.youtube.com/watch?v=Gt9WdwexWHA
Tuning: eBGDAE 


e|----------------------------------------10p7---------------10p7----------------|
B|--[10]11r10-8---10-8~------------------------10b12r10-8~--------10-8-10--------|
G|--------------9----------------------------------------------------------------|
D|------------------------7h9p7------7~------------------------------------------|
A|------------------------------10-7---------------------------------------------|
E|-------------------------------------------------------------------------------|

e|-------------------------------------------------------------------------------|
B|-------------12-12---15-----------15-------------------------------------------|
G|------7-9-9--12-12---14b16r14-12--14b16r14-12-14b16r14~---12-14-12-------------|
D|--7/9--------------------------------------------------------------14-12-------|
A|-------------------------------------------------------------------------------|
E|-------------------------------------------------------------------------------|

e|-------------------------------------------------------------------------------|
B|-------------------------------------------------------------------------------|
G|---------------------------------------------15p14p12-14--12-12-11-------------|
D|-------------------------------------------------------------------12----------|
A|--14-12-10----12b14r12-10-12-10----10-12~--------------------------------------|
E|-----------12-------------------12---------------------------------------------|

e|---------------------------------------------------------7-------7-------------|
B|-------------------------8p5-8p5-8/10-8-5~\3/5~----------8-------8-------------|
G|---------------------------------------------------9-7-9---9-7-9---9-7---7~----|
D|--7h9p5---7h9----------------------------------------------------------9-------|
A|--------7-----10-7(\5)---------------------------------------------------------|
E|-------------------------------------------------------------------------------|

e|--19-19p17p15-15/17-19-15----------------12-------12-------12------------------|
B|--------------------------17-17----12h15----12h15----12h15---------------------|
G|--------------------------------------------------------------14-12----14-12~--|
D|--------------------------------------------------------------------14---------|
A|-------------------------------------------------------------------------------|
E|-------------------------------------------------------------------------------|

e|-------------------------------------------------------------------------------|
B|--------------15-----------------15--------------------------------------------|
G|-----12h14/16----14\12-----------14p12--14p12----------------------------------|
D|--14-------------------14-12-14---------------14-12----------------------------|
A|----------------------------------------------------13-12-10----12p10----------|
E|-------------------------------------------------------------12-------12-10-12-|

e|-------------------------------------------------------------------------------|
B|-------------------------------------------------------------------------------|
G|-------------------------------------------------------------------------------|
D|--10/12------------------------------------------------------------------------|
A|--------10/12\10---------------------------------------------------------------|
E|-----------------10/12---------------------------------------------------------|



        
Comments

No comments yet