Gametabs
Home
Tabs
Random

Terran Theme #3

Average rating: No ratings

Composer:

Tabber:

Style:

Instrument:

Created: August 19, 2010 at 12:00 AM

            -------------------------------------------------------------------------------
			     Starcraft 2 - Terran theme #3
-------------------------------------------------------------------------------
Tabbed by: vuser86
Youtube version: http://www.youtube.com/watch?v=XjDP5FzTX50
Tuning:eBGDAE

GUITAR SOLO
e|---------------------------------------------------------------------------|
B|---------------------------------------------------------------------------|
G|---9---11b12r11--9\7/9--11b12r11-9---------------------9-------------------|
D|--9-----------------------------------10--10-9b10r9--------7b8r7-5---------|
A|------------------------------------10-----------------------------7-------|
E|---------------------------------------------------------------------------|

e|---------------------------------------------------------------------------|
B|---------------------8-------5---------------------------------------------|
G|----------7\5---------7------4----4---5------5------4b5r4------------------|
D|------5~--7\5----------(10)------5----5-----------7-------7-------7--------|
A|--5-7----------5b7--------------7-----3---5/7----7----------8---8----------|
E|---------------------------------------------------------------8-----------|

e|---------------------------------------------------------------------------|
B|------------------------------6---5----------------------------------------|
G|--------------9---------------5---4----5-4---4-----------------------------|
D|--7/9-9b10r9-7--9b10r9-7-----7-------------7---6---------------------------|
A|-------------------------8--8--------7-------------------------------------|
E|---------------------------------------------------------------------------|

GUITAR CHORUS
e|--0------0------0------0------0------0-----0-----0----0----1----0----1-----|
B|--0------1------0------1------0------1-----0-----1----0----1----0----1-----|
G|--0------0------0------0------0------0-----0-----0----2----2----2----2-----|
D|--2------2------2------2------2------2-----2-----2----2----3----2----3-----|
A|--2------3------2------3------2------3-----2-----3----0----3----0----3-----|
E|--0-------------0-------------0------------0---------------1---------1-----|

e|---------------------------------------------------------------------------|
B|---------------------------------------------------------------------------|
G|--4------1-----------------------------------------------------------------|
D|--2------2-----------------------------------------------------------------|
A|--2------2-----------------------------------------------------------------|
E|--0------0-----------------------------------------------------------------|

GUITAR N°2
e|---------------------------------------------------------------------------|
B|-------------------------------------------0-2-4-0-2p0-4-------------------|
G|---------------------------------------------------------2-----------------|
D|--------5-4-2--------------2-4-5-4-2---------------------------------------|
A|-2----2-------3-----2----2------------3------------------------------------|
E|---------------------------------------------------------------------------|

e|---------------------------------------------------------------------------|
B|---------------------------------------------------------------------------|
G|---------------------------------------------------------------------------|
D|--5-5-2-2------------------------------------------------------------------|
A|---------------------------------------------------------------------------|
E|---------------------------------------------------------------------------|

VIOLINs
e|part1----------------------------------------------------------------------|
B|----------------------------------------------12-10-12-8--12-10-12-8-etc---|
G|--12-11-12--10--12-11-12-10--etc--mixed with-------------------------------|
D|---------------------------------------------------------------------------|
A|---------------------------------------------------------------------------|
E|---------------------------------------------------------------------------|

e|part2----------------------------------------12-10-12-8--12-10-12-8-etc----|
B|--13-12-13-10--13-12-13-10 etc--mixed with---------------------------------|
G|---------------------------------------------------------------------------|
D|---------------------------------------------------------------------------|
A|---------------------------------------------------------------------------|
E|---------------------------------------------------------------------------|

e|part3---------------------------------10-12-10-12-10-12-etc----------------|
B|---10-12-10-12-10-12-etc--mixed with---------------------------------------|
G|---------------------------------------------------------------------------|
D|---------------------------------------------------------------------------|
A|---------------------------------------------------------------------------|
E|---------------------------------------------------------------------------|

e|----------------------------------7-12-7-12-7-12-etc-----------------------|
B|---9-12-9-12-9-12-etc mixed with-------------------------------------------|
G|---------------------------------------------------------------------------|
D|---------------------------------------------------------------------------|
A|---------------------------------------------------------------------------|
E|---------------------------------------------------------------------------|


************************************

| /   slide up
| \   slide down
| h   hammer-on
| p   pull-off
| ~   vibrato
| +   harmonic
| x   Mute note
| b   Bend
| pb  Pre-bend
| br  Bend release
| pbr Pre-bend release
| brb Bend release bend

************************************
        
Comments

No comments yet