Gametabs
Home
Tabs
Random

Menu Screen

Average rating: 4.800

5 ratings

Composer:

Tabber:

Style:

Instrument:

Created: November 15, 2007 at 12:00 AM

            
                            STARFOX 64 - MENU SCREEN

Music by Hajime Wakai
Arranged by Stamen47

Gtr I (E A D G B E) 

    Q=60
   4/4
    Gtr I
                     |-3-|                                |-3-|
    H   S  S         S S S Q.  +H       H    S  S         S S S Q.    
||--7---5--3-------|-----------------|--8----7--5-------|-3-5-3-5---------||
||o-8---3----------|-3-1-0-1---------|-10----5----------|-3--------------o||
||--0---0----------|-0---------------|------------------|-----------------||
||-----------------|-----------------|------------------|-0----------0----||
||o----------------|-3----------3----|--0----0----------|----------------o||
||-----------------|-----------------|------------------|-----------------||
    H   H            H          H       H    H            H          H


   H    S S          H    S S    
|-10----7---------|-10----7---------|
|--7------8-------|--7------8-------|
|-------9---------|-------9---------|
|-----------------|-----------------|
|-----------------|-----------------|
|--7----0---------|--7----0---------|
   H    H            H    H


                                       D.C.
                      |-3-|
   H     S S          S S S          S H
|-12----10-8-------|--8-7-8----------7-5----*|
|--8-----8---------|-10----------------7----*|
|------------------|-------------------7----*|
|------------------|--0----------------0----*|
|------------------|------------------------*|
|--8-----8---------|------------------------*|
   H     H            H                H

        
Comments

@your name here (March 06, 2008 at 8:55 PM)

way too messed up...make it simple and keep the fingers closer together....


@ronito (March 06, 2008 at 9:56 PM)

lol. He could dumb it down or you could smart up your playing.


@JrallxSpenski (August 01, 2008 at 10:48 PM)

i don get it


@Afroxx (October 09, 2009 at 3:09 AM)

OMFG!!1 IS THE HOLY SHITT!!! I LOVE IT!!!!! :D