Gametabs
Home
Tabs
Random

Main Theme

Average rating: 2.000

1 ratings

Composer:

Tabber:

Style:

Instrument:

Created: December 04, 2010 at 12:00 AM

            Main Theme
Star Fox
Hajime Hirasawa
Link Strife07
12/4/10

Intro


e|---------------------------------------|
B|---------------------------------3-----|
G|---------0--0-0--2--2-2--5--5-5--------|
D|-0--0-0--------------------------------|
A|---------------------------------------|
E|---------------------------------------|

Beginning of Song

e|---------------------------------------|
B|---------------------------------------|
G|---------------------------------------|
D|----0--0--0---0-2-3--------------------|
A|---------------------------------------|
E|---------------------------------------|

e|---------------------------------------|
B|---------------------------------------|
G|----0--2--2-5-4---4-2-0-2--------------|
D|--3------------------------0-----------|
A|---------------------------------------|
E|---------------------------------------|

e|---------------------------------------|
B|---------------------------------------|
G|---------------------------------------|
D|----0--0--0---0-2-3--------------------|
A|---------------------------------------|
E|---------------------------------------|

e|---------------------------------------|
B|---------------------------3-----------|
G|----0--2--2-5-4---4-2-0-2--------------|
D|--3------------------------------------|
A|---------------------------------------|
E|---------------------------------------|

Play twice

e|---------------------------------------|
B|--1--1--1------------------------------|
G|----------3-1-0------------------------|
D|---------------------------------------|
A|---------------------------------------|
E|---------------------------------------|

e|---------------------------------------|
B|---------------------------------------|
G|--0--1--3---3--5--3---3-1-0------------|
D|---------------------------------------|
A|-----------------------------3---------|
E|---------------------------------------|  

Play Once

e|---------------------------------------|
B|---------------------------------------|
G|---------------------------------------|
D|----0--0--0---0-2-3--------------------|
A|---------------------------------------|
E|---------------------------------------|

e|---------------------------------------|
B|---------------------------3-----------|
G|----0--2--2-5-4---4-2-0-2--------------|
D|--3------------------------------------|
A|---------------------------------------|
E|---------------------------------------|

e|----3--3-3--3-3-3-3-3--3---------------|
B|---------------------------------------|
G|---------------------------------------|
D|---------------------------------------|
A|---------------------------------------|
E|---------------------------------------|



        
Comments

@suchtie (September 29, 2011 at 4:03 PM)

This tab is great for beginners, but the melody is simplified and not very accurate. I'd recommend to improve this so that advanced guitarists can play this too.