Gametabs
Home
Tabs
Random

Thraddash

Average rating: No ratings

Composer:

Tabber:

Style:

Instrument:

Created: June 03, 2011 at 12:00 AM

                                  Star Control 2 - Thraddash BASS TAB
                          Composed by Riku Nuottajarvi

                   Tabbed by auriplane ([email protected])



Four-string bass, standard tuning.  You could play some of the notes lower
on a five-string, but hopefully that's pretty self-explanatory if you want
to do that.  If not, leave a comment and I'll update it.


G |--------------------------------|
D |----------------------------2---| x2
A |2-----2-5-2---2---2-5-2-5-------|
E |--------------------------------|

G |--------------------------------|--------------------------------|
D |------------------------3--2----|----------------------------2---| x2
A |2-----2-5-2---2---2-5-2-------5-|2-----2-5-2---2---2-5-2-5-------|
E |--------------------------------|--------------------------------|

G |--------------------------------|--------------------------------|
D |------------------------5--4----|----------------------------4---|
A |4-----4-7-4---4---4-7-4-------7-|4-----4-7-4---4---4-7-4-7-------|
E |--------------------------------|--------------------------------|

G |--------------------------------|--------------------------------|
D |------------------------3--2----|----------------------------2---|
A |2-----2-5-2---2---2-5-2-------5-|2-----2-5-2---2---2-5-2-5-------|
E |--------------------------------|--------------------------------|

G |--------------------------------|
D |----------------------------2---| x4
A |2-----2-5-2---2---2-5-2-5-------|
E |--------------------------------|

G |--------------------------------|--------------------------------|
D |----------------------------2---|--------------------------------|
A |------2-5-2---2---2-5-2-5-------|2-------2-------2---------------|
E |5-------------------------------|--------------------------------|

G |--------------------------------|--------------------------------|
D |------------------------3--2----|----------------------------2---| x2
A |2-----2-5-2---2---2-5-2-------5-|2-----2-5-2---2---2-5-2-5-------|
E |--------------------------------|--------------------------------|

G |--------------------------------|--------------------------------|
D |------------------------5--4----|----------------------------4---|
A |4-----4-7-4---4---4-7-4-------7-|4-----4-7-4---4---4-7-4-7-------|
E |--------------------------------|--------------------------------|

G |--------------------------------|--------------------------------|
D |------------------------3--2----|----------------------------2---|
A |2-----2-5-2---2---2-5-2-------5-|2-----2-5-2---2---2-5-2-5-------|
E |--------------------------------|--------------------------------|

G |------4---4---4-------4---4---4-|------4---4---4-------4---4---4-|
D |--------------------------------|--------------------------------| x2
A |2---2-----------2---2-----------|3---3-----------3---3-----------|
E |--------------------------------|--------------------------------|

G |--------------------------------|
D |--------------------------------|
A |2-------------------------------|
E |--------------------------------|


        
Comments

No comments yet