Gametabs
Home
Tabs
Random

Campfire Songs Medley

Average rating: 4.875

8 ratings

Composer:

Tabber:

Style:

Instrument:

Created: July 12, 2013 at 12:00 AM

            Title: S.T.A.L.K.E.R. Campfire Songs Medley
SubTitle: S.T.A.L.K.E.R. Shadow of Chernobyl
Artist: Frey Vladimir
Tabber: Mitch Jackson

TUNING = Down 1 1/2 steps

Left hand fingering has been included in the GP file as a guide

--------
LEGEND
--------
h = Hammer on
p = Pull off
L = Hold previous note
s = Slide
^ = Upstroke
v = Downstroke
x = Dead note
(?) = Ghost note
|-3-| = Triplet
|-2:3-| = 2 notes are equal to 3
. (below bar) = Palm mute
ferm = Hold note slightly longer
rall = Gradually slow down


            
GUITAR SONG 1
----------------------------
 T/S = 3/4   110bpm

     E  E  E  E  E  E       E  E  E  E  E  E       E  E  E  E  E  E       E  E  S S Q.                                            
C#|-----0--0-----0--0----|-----1--1-----1--1----|-----0--0-----0--0----|--------0--------------|
G#|-----1--1-----1--1----|-----3--3-----3--3----|-----0--0-----0--0----|--------1p0-1----------|
E |-----2--2-----2--2----|-----2--2-----2--2----|-----1--1-----1--1----|--------2--------------|
B |----------------------|--0--------0----------|----------------------|-----2-----------------|
F#|--0--------0----------|----------------------|-----------2----------|--0--------------------|
C#|----------------------|----------------------|--0-------------------|-----------------------|

   
     E  E  E  E  E  E       E  E  E  E  E  E       E  E  E  E  E  E       E  E  E  Q.                                                       
  |-----0--0-----0--0----|-----1--1-----1--1----|-----0--0-----0--0----|-----------0----------|
  |-----1--1-----1--1----|-----3--3-----3--3----|-----0--0-----0--0----|--------0--1----------|
  |-----2--2-----2--2----|-----2--2-----2--2----|-----1--1-----1--1----|-----2-----2----------|
  |----------------------|--0--------0----------|----------------------|----------------------|
  |--0--------0----------|----------------------|-----------2----------|--0-------------------|
  |----------------------|----------------------|--0-------------------|----------------------|

                                                                     
     E  E  E  E  E  E       E  E  E  E  E  E       E  E  E  E  E  E       E  E  E  E  E  E                                                                
  |-----------0----------|-----------1----------|-----------0----------|-----0--0-----0--0----|
  |--------3-----3-------|--------3-----3-------|--------3-----3-------|-----1--1-----1--1----|
  |-----1-----------0----|-----2-----------0----|-----1-----------1----|-----2--2-----2--2----|
  |----------------------|--0-------------------|----------------------|----------------------|
  |----------------------|----------------------|----------------------|--0--------0----------|
  |--0-------------------|----------------------|--0-------------------|----------------------|

               
     E  E  E  E  E  E       E  E  E  E  E  E       E  E  E  E  E  E       E  E  S S E  E  E                                                 
  |-----1--1-----1--1----|-----3--3-----3--3----|-----0--0-----0--0----|--------0------0--0----|
  |-----3--3-----3--3----|-----3--3-----3--3----|-----1--1-----1--1----|--------1p0----1--1----|
  |-----2--2-----2--2----|-----0--0-----0--0----|-----2--2-----2--2----|-----2--2------2--2----|
  |--0--------0----------|----------------------|----------------------|-----------------------|
  |----------------------|----------------------|--0--------0----------|--0---------0----------|
  |----------------------|--3--------3----------|----------------------|-----------------------|

                                                                
     E  E  E  E  E  E       E  E  E  E  E  E       E  E  E  Q.            H.                                                                       
  |-----1--1-----1--1----|--------3--------0----|-----------0----------|--L--------------------|
  |-----3--3-----3--3----|--------3--------0----|--------1-------------|-----------------------|
  |-----2--2-----2--2----|-----0--------2-------|-----2----------------|-----------------------|
  |--0--------0----------|----------------------|----------------------|-----------------------|
  |----------------------|----------------------|--0-------------------|-----------------------|
  |----------------------|--3--------0----------|----------------------|-----------------------|

GUITAR SONG 2
----------------------------
 T/S = 4/4    130bpm

     ^           ^  v  ^  v       ^           ^  v  ^  v       ^           ^  v  ^  v       ^           ^  v  ^  v  
     H           E  E  E  E       H           E  E  E  E       H           E  E  E  E       H           E  E  E  E
  |--0----------(0)-0-(0)-0----|--1----------(1)-1-(1)-1----|--3----------(3)-3-(3)-3----|--0----------(0)-0-(0)-0----|
  |--1-----------1--1--1--1----|--3-----------3--3--3--3----|--3-----------3--3--3--3----|--1-----------1--1--1--0----|
  |--2-----------2--2--2--2----|--2-----------2--2--2--2----|--0-----------0--0--0--0----|--0-----------0--0--0--0----|
  |--2-----------2--2--2--2----|--0-----------0-(0)-0-(0)---|--0-----------0--0--0--0----|--2-----------2--2--2--2----|
  |--0-----------0-(0)-0-(0)---|----------------------------|--2-----------2--2--2--2----|--3-----------3-(3)-3-(3)---|
  |----------------------------|----------------------------|--3-----------3-(3)-3-(3)---|----------------------------|

     ^           ^  v  ^  v       ^           ^  v  ^  v       ^           ^  v  ^  v       ^           ^  v  ^  v   
     H           E  E  E  E       H           E  E  E  E       H           E  E  E  E       H           E  E  E  E
  |--0----------(0)-0-(0)-0----|--1----------(1)-1-(1)-1----|--0----------(0)-0-(0)-0----|--0----------(0)-0-(0)-0----|
  |--1-----------1--1--1--1----|--3-----------3--3--3--3----|--0-----------3--3--3--3----|--1-----------1--1--1--1----|
  |--2-----------2--2--2--2----|--2-----------2--2--2--2----|--1-----------1--1--1--1----|--2-----------2--2--2--2----|
  |--2-----------2--2--2--2----|--0-----------0-(0)-0-(0)---|--2-----------2--2--2--2----|--2-----------2--2--2--2----|
  |--0-----------0-(0)-0-(0)---|----------------------------|--2-----------2--2--2--2----|--0-----------0-(0)-0-(0)---|
  |----------------------------|----------------------------|--0-----------0-(0)-0-(0)---|----------------------------|

     ^        v  ^  v  ^  v       ^           ^  v  ^  v       ^           ^  v  ^  v       ^        v     v  ^    
     Q.       E  E  E  E  E       H           E  E  E  E       H           E  E  E  E       Q.       Q     E  Q
  |--0--------0-(0)-0-(0)-0----|--1----------(1)-1-(1)-1----|--3----------(3)-3-(3)-3----|--0--------0-----0-(0)------|
  |--2--------2--2--2--2--2----|--3-----------3--3--3--3----|--3-----------3--3--3--3----|--1--------1-----1--1-------|
  |--0--------0--0--0--0--0----|--2-----------2--2--2--2----|--0-----------0--0--0--0----|--0--------0-----0--0-------|
  |--2--------2--2--2--2--2----|--0-----------0-(0)-0-(0)---|--0-----------0--0--0--0----|--2--------2-----2--2-------|
  |--0-------(0)-0-(0)-0-(0)---|----------------------------|--2-----------2--2--2--2----|--3-------(3)---(3)-3-------|
  |----------------------------|----------------------------|--3-----------3-(3)-3-(3)---|----------------------------|

     ^           ^  v  ^  v       ^        v  ^  v  ^  v       ^        v  ^  v  ^  v       ^        v  ^  v  ^  v    
     H           E  E  E  E       Q.       E  E  E  E  E       Q.       E  E  E  E  E       E  Q     E  E  E  E  E
  |--0----------(0)-0-(0)-0----|--1--------1-(1)-1-(1)-1----|--0--------0-(0)-0-(0)-0----|--0--------0-(0)-0-(0)-0----|
  |--1-----------1--1--1--1----|--3--------3--3--3--3--3----|--0--------3--3--3--3--3----|--0h-1-----1--1--1--1--0----|
  |--2-----------2--2--2--2----|--2--------2--2--2--2--2----|--1--------1--1--1--1--1----|--2--------2--2--2--2--2----|
  |--2-----------2--2--2--2----|--0-------(0)-0-(0)-0-(0)---|--2--------2--2--2--2--2----|--2--------2--2--2--2--2----|
  |--0-----------0-(0)-0-(0)---|----------------------------|--2--------2--2--2--2--2----|--0-------(0)-0-(0)-0-(0)---|
  |----------------------------|----------------------------|--0-------(0)-0-(0)-0-(0)---|----------------------------|

     ^  v  ^  v  ^  v  ^  v       ^  v  ^  v  ^  v  ^  v       ^  v  ^  v  ^  v  ^  v       ^  v  ^  v  ^  v  ^  v  
     E  E  E  E  E  E  E  E       E  E  E  E  E  E  E  E       E  E  E  E  E  E  E  E       E  E  E  E  E  E  E  E
  |--0--0-(0)-0-(0)-0-(0)-0----|--1--1-(1)-1-(1)-1-(1)-1----|--3--3-(3)-3-(3)-3-(3)-3----|--0--0-(0)-0-(0)-0-(0)-0----|
  |--1--1--1--1--1--1--1--1----|--3--3--3--3--3--3--3--3----|--3--3--3--3--3--3--3--3----|--1--1--1--1--1--1--1--0----|
  |--2--2--2--2--2--2--2--2----|--2--2--2--2--2--2--2--2----|--0--0--0--0--0--0--0--0----|--0--0--0--0--0--0--0--0----|
  |--2--2--2--2--2--2--2--2----|--0-(0)-0-(0)-0-(0)-0-(0)---|--0--0--0--0--0--0--0--0----|--2--2--2--2--2--2--2--2----|
  |--0-(0)-0-(0)-0-(0)-0-(0)---|----------------------------|--2--2--2--2--2--2--2--2----|--3-(3)-3-(3)-3-(3)-3-(3)---|
  |----------------------------|----------------------------|--3-(3)-3-(3)-3-(3)-3-(3)---|----------------------------|

     ^  v  ^  v  ^  v  ^  v       ^  v  ^  v  ^  v  ^  v       ^  v  ^  v  ^  v  ^  v       ^  v  ^  v  ^  v  ^  v     
     E  E  E  E  E  E  E  E       E  E  E  E  E  E  E  E       E  E  E  E  E  E  E  E       E  E  E  E  E  E  E  E
  |--0--0-(0)-0-(0)-0-(0)-0----|--1--1-(1)-1-(1)-1-(1)-1----|--0--0-(0)-0-(0)-0-(0)-0----|--0--0-(0)-0-(0)-0-(0)-0----|
  |--1--1--1--1--1--1--1--1----|--3--3--3--3--3--3--3--3----|--3--3--3--3--3--3--3--3----|--1--1--1--1--1--1--1--1----|
  |--2--2--2--2--2--2--2--2----|--2--2--2--2--2--2--2--2----|--1--1--1--1--1--1--1--1----|--2--2--2--2--2--2--2--2----|
  |--2--2--2--2--2--2--2--2----|--0-(0)-0-(0)-0-(0)-0-(0)---|--2--2--2--2--2--2--2--2----|--2--2--2--2--2--2--2--2----|
  |--0-(0)-0-(0)-0-(0)-0-(0)---|----------------------------|--2--2--2--2--2--2--2--2----|--0-(0)-0-(0)-0-(0)-0-(0)---|
  |----------------------------|----------------------------|--0-(0)-0-(0)-0-(0)-0-(0)---|----------------------------|

                                                                                          T/S = 2/4
     ^  v  ^  v  ^  v  ^  v       ^  v  ^  v  ^  v  ^  v       ^        v  ^  v  ^          ^ 
     E  E  E  E  E  E  E  E       E  E  E  E  E  E  E  E       Q.       E  E  E  Q          H
  |--1--1-(1)-1-(1)-1-(1)-1----|--0--0-(0)-0-(0)-0-(0)-0----|--0--------0-(0)-0-(0)------|-(0)------------------------|
  |--3--3--3--3--3--3--3--3----|--3--3--3--3--3--3--3--3----|--1--------1--1--1--0-------|--1-------------------------|
  |--2--2--2--2--2--2--2--2----|--1--1--1--1--1--1--1--1----|--2--------2--2--2--1-------|--2-------------------------|
  |--0-(0)-0-(0)-0-(0)-0-(0)---|--2--2--2--2--2--2--2--2----|--2--------2--2--2--2-------|--2-------------------------|
  |----------------------------|--2--2--2--2--2--2--2--2----|--0-------(0)-0-(0)-2-------|--0-------------------------|
  |----------------------------|--0-(0)-0-(0)-0-(0)-0-(0)---|--------------------0-------|----------------------------|


GUITAR SONG 3
----------------------------
 T/S = 4/4    97bpm

     E  E  E  E  E  E  E  E       E  E  E  E  E  E  E  E       E  E  E  E  E  E  E  E       E  E  E  E  E  E  E  E                                
  |-----0-----------1----------|-----3-----------0----------|-----0-----------1----------|-----3-----------------0----|
  |--------1-----------1-------|--------3-----------1-------|--------1-----------1-------|--------3-----------1-------|
  |-----------2-----------2----|-----------0-----------2----|-----------2-----------2----|-----------0-----2----------|
  |----------------------------|----------------------------|----------------------------|----------------------------|
  |--0-------------------------|--------------0-------------|--0-------------------------|--------------0-------------|
  |--------------1-------------|--3-------------------------|--------------1-------------|--3-------------------------|

                                                                                             ^     v  ^  ^     v  ^ 
     E  E  E  E  E  E  E  E       E  E  E  E  E  E  E  E       E  E  E  E  E  E  S S E       Q     E  E  E  E  E  E                                                    
  |-----------0-----------0----|-----------3-----------0----|-----------0-----0-----------|--------3-(3)-0-----0-(0)---|
  |--------1-----------1-------|--------0-----------1-------|--------1-----------1p0------|--------3-(3)-1-----1--0----|
  |-----2-----------0----------|-----0-----------2----------|-----2------------------0----|--0-----0--0--2-----2--2----|
  |----------------------------|----------------------------|-----------------------------|--0----(0)-0--2-----2--2----|
  |--0-----------3-------------|--------------0-------------|--0-----------3--------------|--2--------2--0----(0)-0----|
  |----------------------------|--3-------------------------|-----------------------------|--3-------------------------|

     ^     v  ^  ^  v  ^  v       ^  v  ^  v  ^     v  ^       ^     v  ^  ^  v  ^  v       ^  v  ^  v  ^  v  ^  v                          
     Q     E  E  E  E  E  E       E  E  E  E  Q     E  E       Q     E  E  E  E  E  E       E  E  E  E  E  E  E  E 
  |--0-----0-(0)-1--1-(1)-1----|--3--3-(3)-3--0-----0-(0)---|--0-----0-(0)-1--1-(1)-1----|--3--3-(3)-3--0--0-(0)-0----|
  |--1-----1--0--1--1--1--1----|--3--3--3--3--1-----1--0----|--1-----1--0--1--1--1--1----|--3--3--3--3--1--1--1--1----|
  |--2-----2--2--2--2--2--2----|--4--4--4--4--2-----2--2----|--2-----2--2--2--2--2--2----|--4--4--4--4--2--2--2--2----|
  |--2-----2--2--3--3--3--3----|--5--5--5--5--2-----2--2----|--2-----2--2--3--3--3--3----|--5--5--5--5--2--2--2--2----|
  |--0----(0)-0--3--3--3--3----|--5--5--5--5--0----(0)-0----|--0----(0)-0--3--3--3--3----|--5--5--5--5--0-(0)-0-(0)---|
  |--------------1-(1)-1-(1)---|--3-(3)-3-(3)---------------|--------------1-(1)-1-(1)---|--3-(3)-3-(3)---------------|

     ^     v  ^  ^  v  ^  v       ^     ^  v  ^  v  ^  v       ^     ^   v   ^   v   ^       ^     ^  v  ^  v  ^   v 
     Q     E  E  E  E  E  E       Q     E  E  E  E  E  E       Q     E  E  E  E  S S E       Q     E  E  E  E  S S E
  |--0-----0-----3--3-(3)-3----|--0----(0)-0--3--3-(3)-3----|--0----(0)-0-(0)-0-(0)--0----|--0----(0)-0-(0)-0-(0)--0----|
  |--1-----1-----3--3--3--3----|--1-----1--0--3--3--3--3----|--1-----1--1--1--1--1p0-0----|--1-----1--1--1--1--1p0-0----|
  |--0-----0-(0)-4--4--4--4----|--0-----0--0--4--4--4--4----|--2-----2--2--2--2--2---2----|--2-----2--2--2--2--2---2----|
  |--2----(2)-2--5--5--5--5----|--2-----2--2--5--5--5--5----|--2-----2--2--2--2--2---2----|--2-----2--2--2--2--2---2----|
  |--3--------3--5--5--5--5----|--3-----3--3--5--5--5--5----|--0-----0-(0)-0-(0)-0--(0)---|--0-----0-(0)-0-(0)-0--(0)---|
  |--3--------3--3-(3)-3-(3)---|--3-----3-(3)-3-(3)-3-(3)---|-----------------------------|-----------------------------|

     ^     v  ^  ^  v  ^  v       ^  v  ^  v  ^     v  ^       ^     v  ^  ^  v  ^  v       ^  v  ^  v  ^    
     Q     E  E  E  E  E  E       E  E  E  E  Q     E  E       Q     E  E  E  E  E  E       E  E  E  E  H
  |--0-----0-(0)-1--1-(1)-1----|--3--3-(3)-3--0-----0-(0)---|--0-----0-(0)-1--1-(1)-1----|--3--3-(3)-3--0-------------|
  |--1-----1--1--1--1--1--1----|--3--3--3--3--1-----1--0----|--1-----1--0--1--1--1--1----|--3--3--3--3--1-------------|
  |--2-----2--2--2--2--2--2----|--4--4--4--4--2-----2--2----|--2-----2--2--2--2--2--2----|--4--4--4--4--2-------------|
  |--2-----2--2--3--3--3--3----|--5--5--5--5--2-----2--2----|--2-----2--2--3--3--3--3----|--5--5--5--5--2-------------|
  |--0----(0)-0--3--3--3--3----|--5--5--5--5--0----(0)-0----|--0----(0)-0--3--3--3--3----|--5--5--5--5--0-------------|
  |--------------1-(1)-1-(1)---|--3-(3)-3-(3)---------------|--------------1-(1)-1-(1)---|--3-(3)-3-(3)---------------|
         

GUITAR SONG 4
----------------------------
 T/S = 3/4   100bpm

     ^              v  ^     v        v       ^              v  ^     v        v       ^              v  ^     v        v 
     E.       E     S  E     S  E     S       E.       E     S  E     S  E     S       E.       E     S  E     S  E     S
  |--5--------x-----5-(5)----5--x-----3----|--3--------x-----3-(3)----3--x-----1----|--1--------x-----1-(1)----1--x-----0----|
  |--5--------x-----5--5-----5--x-----3----|--3--------x-----3--3-----3--x-----1----|--1--------x-----1--1-----1--x-----0----|
  |--5--------x-----5--5-----5--x-----4----|--4--------x-----4--4-----4--x-----2----|--2--------x-----2--2-----2--x-----1----|
  |--7--------x-----7--7-----7--x-----5----|--5--------x-----5--5-----5--x-----3----|--3--------x-----3--3-----3--x-----2----|
  |--7--------x-----7--7-----7--x----(5)---|--5--------x-----5--5-----5--x----(3)---|--3--------x-----3--3-----3--x----(2)---|
  |--5--------x----(5)-5----(5)-x----------|--3--------x----(3)-3----(3)-x----------|--1--------x----(1)-1----(1)-x----------|

     ^              v        v  ^             ^              v        v        v       ^              v  ^     v        v 
     E.       E     S  E     S  E.            E.       E     E.       S  E     S       E.       E     S  E     S  E     S    
  |--0--------x-----0--------0-(0)---------|--0--------x-----0--------0--x-----5----|--5--------x-----5-(5)----5--x-----3----|
  |--0--------x-----0--------0--0----------|--0--------x-----0--------0--x-----5----|--5--------x-----5--5-----5--x-----3----|
  |--1--------x-----1--------1--2----------|--1--------x-----1--------1--x-----5----|--5--------x-----5--5-----5--x-----4----|
  |--2--------x-----2--------2--3----------|--2--------x-----2--------2--x-----7----|--7--------x-----7--7-----7--x-----5----|
  |--2--------x-----2-------(2)-3----------|--2--------x-----2-------(2)-x----(7)---|--7--------x-----7--7-----7--x----(5)---|
  |--0--------x----(0)------(0)-1----------|--0--------x----(0)------(0)-x----------|--5--------x----(5)-5----(5)-x----------|

                                                                                       |----2:3----|        |2:3|
     ^     v        v  ^     v        v       ^     v        v        v        v       ^     ^     ^        ^   ^
     E     S  E     S  E     S  E     S       E     S  E     E.       S  E     S       S.    S.    E.       S   E             
  |--3-----3--x-----3-(3)----3--x-----1----|--1-----1--x-----1--------1--x-----0----|-(0)---(0)---(0)------(0)-(0)-----------|
  |--3-----3--x-----3--3-----3--x-----1----|--1-----1--x-----1--------1--x-----0----|--0-----0-----0--------0---0------------|
  |--4-----4--x-----4--4-----4--x-----2----|--2-----2--x-----2--------2--x-----1----|--1-----2-----1--------2---1------------|
  |--5-----5--x-----5--5-----5--x-----3----|--3-----3--x-----3--------3--x-----2----|--2-----3-----2--------3---2------------|
  |--5----(5)-x-----5--5-----5--x----(3)---|--3----(3)-x-----3--------3--x----(2)---|--2-----3-----2--------3---2------------|
  |--3----(3)-x----(3)-3----(3)-x----------|--1----(1)-x----(1)------(1)-x----------|--0-----0-----0--------0---0------------|

     ^              v  ^     v        v       ^     v        v        v        v       ^     v        v  ^     v        v 
     E.       E     S  E     S  E     S       E     S  E     E.       S  E     S       E     S  E     S  E     S  E     E   
  |--5--------x-----5-(5)----5--x-----3----|--3-----3--x-----3--------3--x-----1----|--1-----1--x-----1-(1)----1--x-----0----|
  |--5--------x-----5--5-----5--x-----3----|--3-----3--x-----3--------3--x-----1----|--1-----1--x-----1--1-----1--x-----0----|
  |--5--------x-----5--5-----5--x-----4----|--4-----4--x-----4--------4--x-----2----|--2-----2--x-----2--2-----2--x-----1----|
  |--7--------x-----7--7-----7--x-----5----|--5-----5--x-----5--------5--x-----3----|--3-----3--x-----3--3-----3--x-----2----|
  |--7--------x-----7--7-----7--x----(5)---|--5----(5)-x-----5--------5--x----(3)---|--3----(3)-x-----3--3-----3--x----(2)---|
  |--5--------x----(5)-5----(5)-x----------|--3----(3)-x----(3)------(3)-x----------|--1----(1)-x----(1)-1----(1)-x----------|

     ^     v        v        v        v       ^              v  ^     v        v       ^     v        v  ^     v        v 
     E     S  E     E.       S  E     S       E.       E     S  E     S  E     S       E     S  E     S  E     S  E     E
  |--0-----0--x-----0--------0--x-----5----|--5--------x-----5-(5)----5--x-----3----|--3-----3--x-----3-(3)----3--x-----1----|
  |--0-----0--x-----0--------0--x-----5----|--5--------x-----5--5-----5--x-----3----|--3-----3--x-----3--3-----3--x-----1----|
  |--1-----1--x-----1--------1--x-----5----|--5--------x-----5--5-----5--x-----4----|--4-----4--x-----4--4-----4--x-----2----|
  |--2-----2--x-----2--------2--x-----7----|--7--------x-----7--7-----7--x-----5----|--5-----5--x-----5--5-----5--x-----3----|
  |--2-----2--x-----2--------2--x----(7)---|--7--------x-----7--7-----7--x----(5)---|--5----(5)-x-----5--5-----5--x----(3)---|
  |--0----(0)-x----(0)------(0)-x----------|--5--------x----(5)-5----(5)-x----------|--3----(3)-x----(3)-3----(3)-x----------|

                                              |----2:3----|        |2:3|             T/S = 2/4
     ^     v        v        v        v       ^     ^     ^        ^   ^               ^  
     E     S  E     E.       S  E     S       S.    S.    E.       S   E               Q                 Q
  |--1-----1--x-----1--------1--x-----0----|-(0)---(0)---(0)------(0)-(0)-----------|--0-------------------------------------|
  |--1-----1--x-----1--------1--x-----0----|--0-----0-----0--------0---0------------|--0-------------------------------------|
  |--2-----2--x-----2--------2--x-----1----|--1-----2-----1--------2---1------------|--2-------------------------------------|
  |--3-----3--x-----3--------3--x-----2----|--2-----3-----2--------3---2------------|--3-------------------------------------|
  |--3----(3)-x-----3--------3--x----(2)---|--2-----3-----2--------3---2------------|--3-------------------------------------|
  |--1----(1)-x----(1)------(1)-x----------|--0-----0-----0--------0---0------------|--0-------------------------------------|

      
GUITAR SONG 5
----------------------------
 T/S = 4/4    82bpm

     |--3--|  |--3--|  |--3--|  |--3--|       |--3--|  |--3--|  |--3--|  |--3--|       |--3--|  |--3--|  |--3--|  |--3--|            
     E  E  E  E  E  E  E  E  E  E  E  E       E  E  E  E  E  E  E  E  E  E  E  E       E  E  E  E  E  E  E  E  E  E  E  E                                 
  |-----------3--------3--------3----------|-----------3--------3--------3----------|-----------2--------2--------2----------|
  |--------5-----5--------5--------5-------|--------5-----5--------5--------5-------|--------3-----3--------3--------3-------|
  |-----4-----------4--------4--------4----|-----5-----------5--------5--------5----|-----5-----------5--------5--------5----|
  |----------------------------------------|----------------------------------------|--0-------------------------------------|
  |----------------------------------------|--0-------------------------------------|----------------------------------------|
  |--0-------------------------------------|----------------------------------------|----------------------------------------|

     |--3--|  |--3--|  |--3--|  |--3--|       |--3--|  |--3--|  |--3--|  |--3--|       |--3--|  |--3--|  |--3--|  |--3--|            
     E  E  E  E  E  E  E  E  E  E  E  E       E  E  E  E  E  E  E  E  E  E  E  E       E  E  E  E  E  E  E  E  E  E  E  E                                                                                     
  |-----------2-----------------2----------|-----------0-----------------0----------|-----------0-----------------0----------|
  |--------3-----3-----------3-----3-------|--------1-----1-----------1-----1-------|--------1-----1-----------1-----0-------|
  |-----4-----------4-----4-----------4----|-----4-----------4-----4-----------0----|-----2-----------2-----2-----------0----|
  |----------------------------------------|----------------------------------------|----------------------------------------|
  |----------------------------------------|--3-----------------3-------------------|----------------------------------------|
  |--3-----------------3-------------------|----------------------------------------|--2-----------------2-------------------|

                                         
     |--3--|  |--3--|  |--3--|  |--3--|       |--3--|  |--3--|  |--3--|                |--3--|  |--3--|  |--3--|  |--3--|            
     E  E  E  E  E  E  E  E  E  E  E  E       E  E  E  E  E  E  E  E  E  Q             E  E  E  E  E  E  E  E  E  E  E  E                                             
  |-----------2-----------------2----------|-----------2-----------------2----------|-----------3--------3--------3----------|
  |--------5-----5-----------5-----5-------|--------4-----4-----------4-------------|--------5-----5--------5--------5-------|
  |-----3-----------3-----3-----------3----|-----2-----------2-----2----------------|-----4-----------4--------4--------4----|
  |----------------------------------------|----------------------------------------|----------------------------------------|
  |----------------------------------------|--2-----------------2-------------------|----------------------------------------|
  |--2-----------------2-------------------|----------------------------------------|--0-----------------0-------------------|

                                         
     |--3--|  |--3--|  |--3--|  |--3--|       |--3--|  |--3--|  |--3--|  |--3--|       |--3--|  |--3--|  |--3--|  |--3--|            
     E  E  E  E  E  E  E  E  E  E  E  E       E  E  E  E  E  E  E  E  E  E  E  E       E  E  E  E  E  E  E  E  E  E  E  E                                             
  |--3--------3--------3--------3----------|--2--------2--------2--------2----------|--2--------2--------2--------2----------|
  |--------5-----5--------5--------5-------|--3-----3-----3--------3--------3-------|--3-----3-----3--------3--------3-------|
  |-----5-----------5--------5--------0----|-----5-----------5--------5--------5----|-----4-----------4--------4--------4----|
  |----------------------------------------|--0-------------------------------------|----------------------------------------|
  |--0-------------------------------------|----------------------------------------|----------------------------------------|
  |----------------------------------------|----------------------------------------|--3-------------------------------------|

                                         
     |--3--|  |--3--|  |--3--|  |--3--|       |--3--|  |--3--|  |--3--|  |--3--|       |--3--|  |--3--|  |--3--|  |--3--|            
     E  E  E  E  E  E  E  E  E  E  E  E       E  E  E  E  E  E  E  E  E  E  E  E       E  E  E  E  E  E  E  E  E  E  E  E                                             
  |--0--------0--------0--------0----------|-----------0--------0--------0----------|-----------2--------2--------2----------|
  |--------1-----1--------1--------1-------|--------1-----1--------1--------1-------|--------5-----5--------5--------5-------|
  |-----4-----------4--------4--------0----|-----2-----------2--------2--------2----|-----3-----------3--------3--------3----|
  |----------------------------------------|----------------------------------------|----------------------------------------|
  |--3-----------------3-------------------|----------------------------------------|----------------------------------------|
  |----------------------------------------|--2-----------------2-------------------|--2-----------------2-------------------|

                                           T/S = 3/4  78bpm                                         
     |--3--|  |--3--|  |--3--|                           
     E  E  E  E  E  E  E  E  E  Q             S  S  S  E     S  S  S  S  E     S       S  S  S  E     S  S  S  S  E     S                                            
  |-----------2-----------------2----------|-----------3-----------------3----------|-----------2-----------------------2----|
  |--4-----4-----4-----------4--4----------|-----------5-----------------5----------|-----------3-----------------------3----|
  |-----2-----------2-----2----------------|-----------4-----4-----------5-----5----|-----------5-----5-----------4----------|
  |----------------------------------------|----------------------------------------|--0-----0-------------------------------|
  |--2-----------------2-------------------|--------------------0-----0-------------|----------------------------------------|
  |----------------------------------------|--0-----0-------------------------------|--------------------3-----3-------------|

                                         
     S  S  S  E     S  S  S  S  E     S       S  S  S  E     S  S  S  S  E     S       S  S  S  E     S  S  S  S  E     S                                            
  |-----------0-----------------0----------|-----------2-----------------2----------|-----------3-----------------3----------|
  |-----------1-----------------1-----0----|-----------5-----------------4----------|-----------5-----------------5----------|
  |-----------4-----0-----------2----------|-----------3-----2-----------2-----0----|-----------4-----4-----------5-----5----|
  |----------------------------------------|----------------------------------------|----------------------------------------|
  |--3-----3-------------------------------|--------------------2-------------------|--------------------0-----0-------------|
  |--------------------2-----2-------------|--2-----2-------------------------------|--0-----0-------------------------------|

                                         
     S  S  S  E     S  S  S  S  E     S       S  S  S  E     S  S  S  S  E     S       S  S  S  S  S  S  S  S  S  E.                                             
  |-----------2-----------------------2----|-----------0-----------------0----------|-----------2-----------------2----------|
  |-----------3-----------------------3----|-----------1-----------------1-----0----|--------5-----5-----------4--4----------|
  |-----------5-----5-----------4----------|-----------4-----0-----------2----------|-----3-----------3-----2----------------|
  |--0-----0-------------------------------|----------------------------------------|----------------------------------------|
  |----------------------------------------|--3-----3-------------------------------|--------------------2-------------------|
  |--------------------3-----3-------------|--------------------2-----2-------------|--2-------------------------------------|

                    F                     
     |--3--|  |--3--|  ^                    T/S = 2/4
     E  E  E  E  E  E  Q                      H     
  |-----------3--------3-------------------|--L------------------------------------|
  |--------5--5-----5--5-------------------|--L------------------------------------|
  |-----4--------4-----4-------------------|--L------------------------------------|
  |----------------------------------------|---------------------------------------|
  |----------------------------------------|---------------------------------------|
  |--0-----------------0-------------------|--L------------------------------------|

  
GUITAR SONG 6   
----------------------------
 T/S = 4/4  130bpm              

     Q     E  Q     E  S S S S      Q     E  Q     E  S S S S      Q     E  Q     E  S S S S      E     E  Q     E  S S S S                                     
  |------------------------------|------------------------------|------------------------------|------------------------------|
  |------------------------------|------------------------------|------------------------------|------------------------------|
  |------------------------------|------------------------------|-----------------2------------|--0---------------------------|
  |--------------------0-0-0-0---|--2-----x-----------0-0-0-0---|--2-----x--------2--0-0-0-0---|--2-----9--7-----7--0-0-0-0---|
  |--2-----x--3-----2--2-2-2-2---|--2-----x--3-----0--2-2-2-2---|--2-----x--3-----2--2-2-2-2---|--3-----7--5-----5--0-0-0-0---|
  |--0-----x--0-----0--0-0-0-0---|--0-----x--0-----0--0-0-0-0---|--0-----x--0-----0--0-0-0-0---|--5---------------------------|
                       . . . .                        . . . .                        . . . .                        . . . .

     Q     E  Q     E  S S S S      Q     E  Q     E  S S S S      Q     E  Q     E  S S S S      E     E  Q     E  S S S S                                                     
  |------------------------------|------------------------------|------------------------------|------------------------------|
  |------------------------------|------------------------------|------------------------------|------------------------------|
  |------------------------------|----------------(0)-----------|-----------------2------------|--0-----x--2------------------|
  |--------------------0-0-0-0---|--2-----x-------(0)-0-0-0-0---|--2-----x--------2--0-0-0-0---|--2-----x--0-----0--0-0-0-0---|
  |--2-----x--3-----2--2-2-2-2---|--2-----x--3-----0--2-2-2-2---|--2-----x--3-----2--2-2-2-2---|--3-----x--2-----2--0-0-0-0---|
  |--0-----x--0-----0--0-0-0-0---|--0-----x--0-----0--0-0-0-0---|--0-----x--0-----0--0-0-0-0---|--5-----x---------------------|
                       . . . .                        . . . .                        . . . .                        . . . .
                                                     
     Q     E  E  E  E  Q          Q     E  E  E  E  Q          Q     E  E  E  E  Q          E  E  E  Q     E  Q                                                     
  |----------------------------|----------------------------|----------------------------|----------------------------|
  |----------------------------|----------------------------|----------------------------|----------------------------|
  |----------------------------|----------------------------|----------------------------|-(5)----2-------------------|
  |--2--------5--5--4--2-------|--2--------5--x--7--9-------|--2--------5--x--4--2-------|--5s-7--0--7-----9--9-------|
  |--2-----x--5--5--5--3-------|--2-----x--5--x--7--9-------|--2-----x--5--x--5--3-------|--3-----0--3-----5--5-------|
  |--0-----x--0--0--0--0-------|--0-----x--3--x--5--7-------|--0-----x--0--x--0--0-------|----------------------------|

                                                          
     Q     E  E  E  E  Q          Q     E  E  E  E  Q          Q     E  E  E  E  Q          E  E  E  Q     E  Q                                                 
  |----------------------------|----------------------------|----------------------------|----------------------------|
  |----------------------------|----------------------------|----------------------------|----------------------------|
  |----------------------------|----------------------------|----------------------------|-(5)----2-------------------|
  |--2--------5--5--4--2-------|--2--------5--x--7--9-------|--2--------5--x--4--2-------|--5s-7--0--7-----9--9-------|
  |--2-----x--5--5--5--3-------|--2-----x--5--x--7--9-------|--2-----x--5--x--5--3-------|--3-----0--3-----5--5-------|
  |--0-----x--0--0--0--0-------|--0-----x--3--x--5--7-------|--0-----x--0--x--0--0-------|----------------------------|

 
     W                                                            
  |---------------------------|
  |---------------------------|
  |---------------------------|
  |--2------------------------|
  |--2------------------------|
  |--0------------------------|

 
GUITAR SONG 7
----------------------------
 T/S = 4/4  115bpm

     E  E  E  Q     E  E  E       E  E  E  Q     E  E  E       E  E  E  Q     E  E  E       E  E  E  E  E  E  E  E                                                    
  |----------------------------|----------------------------|----------------------------|----------------------------|
  |-----------7----------------|-----------3----------------|-----------7----------------|-----------------------1----|
  |--------7--------7----------|--------4--------4----------|--------7--------7----------|--------2-----0--0--2-------|
  |-----9--------------9-------|-----5--------------5-------|-----9--------------9-------|-----4----------------------|
  |--7--------------------7----|--3--------------------3----|--7--------------------7----|--2--------3----------------|
  |----------------------------|----------------------------|----------------------------|----------------------------|

                                                          
     E  E  E  Q     E  E  E       E  E  E  Q     E  E  E       E  E  E  Q     E  E  E       E  E  E  E  E  E  E  E                                                            
  |----------------------------|----------------------------|----------------------------|----------------------------|
  |-----------7----------------|-----------3----------------|-----------7----------------|-----------------0----------|
  |--------7--------7----------|--------4--------4----------|--------7--------7----------|--------2-----0-------------|
  |-----9--------------9-------|-----5--------------5-------|-----9--------------9-------|-----4--------------5s-7----|
  |--7--------------------7----|--3--------------------3----|--7--------------------7----|--2--------3----------------|
  |----------------------------|----------------------------|----------------------------|----------------------------|

   120bpm                                                      
     Q     E  E  E  E  Q          Q     E  E  E  E  Q          Q     E  E  E  E  Q          E  E  E  Q     E  Q                                                                
  |----------------------------|----------------------------|----------------------------|----------------------------|
  |----------------------------|----------------------------|----------------------------|----------------------------|
  |----------------------------|----------------------------|----------------------------|-(5)----2-------------------|
  |--2--------5--5--4--2-------|--2--------5--x--7--9-------|--2--------5--x--4--2-------|--5s-7--0--7-----9--9-------|
  |--2-----x--5--5--5--3-------|--2-----x--5--x--7--9-------|--2-----x--5--x--5--3-------|--3-----0--3-----5--5-------|
  |--0-----x--0--0--0--0-------|--0-----x--3--x--5--7-------|--0-----x--0--x--0--0-------|----------------------------|

                                                          
     Q     E  E  E  E  Q          Q     E  E  E  E  Q          Q     E  E  E  E  Q          E  E  E  Q     E  Q                                                                
  |----------------------------|----------------------------|----------------------------|----------------------------|
  |----------------------------|----------------------------|----------------------------|----------------------------|
  |----------------------------|----------------------------|----------------------------|-(5)----2-------------------|
  |--2--------5--5--4--2-------|--2--------5--x--7--9-------|--2--------5--x--4--2-------|--5s-7--0--7-----9--9-------|
  |--2-----x--5--5--5--3-------|--2-----x--5--x--7--9-------|--2-----x--5--x--5--3-------|--3-----0--3-----5--5-------|
  |--0-----x--0--0--0--0-------|--0-----x--3--x--5--7-------|--0-----x--0--x--0--0-------|----------------------------|

  T/S = 2/4
     H                                                            
  |---------------------------|
  |---------------------------|
  |---------------------------|
  |--2------------------------|
  |--2------------------------|
  |--0------------------------|

                                
GUITAR SONG 8
----------------------------
 T/S = 4/4  95bpm

     E  E  E  E  Q     E  E       E  E  E  E  Q     E  E       E  E  E  E  Q     E  E       E  E  E  E  E  E  E  E                     
  |-----------5--7-----5-------|-----------5--7-----5-------|-----------7--8-----7-------|-----------5--7--5----------|
  |--------6--------------6----|--------5--------------5----|--------4--------------4----|--------5-----------8-------|
  |-----7----------------------|-----5----------------------|-----4----------------------|-----5----------------------|
  |--0-------------------------|----------------------------|--4-------------------------|-----------------------5----|
  |----------------------------|--0-------------------------|----------------------------|--0-------------------------|
  |----------------------------|----------------------------|----------------------------|----------------------------|

                                                                                                                 ferm
     E  E  E  E  Q     E  E       E  E  E  E  Q     E  E       E  E  E  E  Q     E  E       E  E  E  E  E  E  E  E                                                              
  |-----------5--7-----5-------|-----------5--7-----5-------|-----------7--8-----7-------|-----------5--7--5----------|
  |--------6--------------6----|--------5--------------5----|--------4--------------4----|--------5-----------8--5----|
  |-----7----------------------|-----5----------------------|-----4----------------------|-----5----------------------|
  |--0-------------------------|----------------------------|--4-------------------------|----------------------------|
  |----------------------------|--0-------------------------|----------------------------|--0-------------------------|
  |----------------------------|----------------------------|----------------------------|----------------------------|

   120bpm                                                     
     E  E  E  E  E  E  E  E       E  E  E  E  E  E  E  E       E  E  E  E  E  E  E  E       E  E  E  E  E  E  E  E                                                             
  |-----------5--7--5--5-------|-----------7--7--5----------|-----------7--8--7----------|-----------5--7--5----------|
  |--------6--------------6----|--------5-----------5-------|--------4-----------4-------|--------5-----------8-------|
  |-----7----------------------|-----5-----------------5----|-----4-----------------4----|-----5----------------------|
  |--0-------------------------|----------------------------|--4-------------------------|-----------------------5----|
  |----------------------------|--0-------------------------|----------------------------|--0-------------------------|
  |----------------------------|----------------------------|----------------------------|----------------------------|

                                                                                          rall --->   60bpm
                                                                                                        ^
     E  E  E  E  E  E  E  E       E  E  E  E  E  E  E  E       E  E  E  E  Q     E  E       E  E  E  E  H            
  |-----------5--7--5----------|-----------5--7--5----------|-----------7--8-----7-------|-----------5--7-------------|
  |--------6-----------6-------|--------5-----------5-------|--------4--------------4----|--------5-----5-------------|
  |-----7-----------------7----|-----5-----------------5----|-----4----------------------|-----5--------5-------------|
  |--0-------------------------|----------------------------|--4-------------------------|--------------5-------------|
  |----------------------------|--0-------------------------|----------------------------|--0-------------------------|
  |----------------------------|----------------------------|----------------------------|----------------------------|

              
GUITAR SONG 9   
----------------------------
 T/S = 3/4   100bpm
                                        
     ^     v        v  ^     v        v       ^     v  ^     v        v  ^             ^     v        v  ^     v        v     
     E     S  E     S  E     S  E     S       E     S  E     E.       S  E.            E     S  E     S  E     S  E     S     
  |--0-----0--x-----0-(0)----0--x-----0----|-(0)----0-(0)----0--------0-(0)---------|--0-----0--x-----0-(0)----0--x-----1----|
  |--1-----1--x-----1--1-----1--x-----1----|--1-----0--0-----0--------1--1----------|--1-----1--x-----1--1-----1--x-----3----|
  |--2-----2--x-----2--2-----2--x-----2----|--2-----2--2-----2--------2--2----------|--2-----2--x-----2--2-----2--x-----2----|
  |--2-----2--x-----2--2-----2--x-----2----|--2-----2--2-----2--------2--2----------|--2-----2--x-----2--2-----2--x-----0----|
  |--0----(0)-x----(0)-0----(0)-x----(0)---|--0----(0)-0----(0)------(0)-0----------|--0----(0)-x----(0)-0----(0)-x----------|
  |-----------x-----------------x----------|----------------------------------------|-----------x-----------------x----------|

     ^     v        v  ^     v        v       ^     v        v  ^     v  ^     v       ^     v        v  ^     v        v           
     E     S  E     S  E     S  E     S       E     S  E     S  E     S  E     S       E     S  E     S  E     S  E     S
  |--1-----1--x-----1--1-----1--x-----0----|-(0)----0--x-----0-(0)----0-(0)----0----|--0-----0--x-----0-(0)----0--x-----0----|
  |--3-----3--x-----3--3-----3--x-----3----|--3-----3--x-----3--3-----3--3-----1----|--1-----1--x-----1--1-----1--x-----0----|
  |--2-----2--x-----2--2-----2--x-----1----|--1-----1--x-----1--1-----1--1-----2----|--2-----2--x-----2--2-----2--x-----2----|
  |--0-----0--x-----0--0-----0--x-----2----|--2-----2--x-----2--2-----2--2-----2----|--2-----2--x-----2--2-----2--x-----2----|
  |-----------x-----------------x----(2)---|--2-----2--x-----2--2-----2--2----(0)---|--0----(0)-x----(0)-0----(0)-x-----0----|
  |-----------x-----------------x----------|--0----(0)-x----(0)-0----(0)-0----------|----------------------------------------|

     ^     v        v  ^     v        v       ^     v        v  ^     v        v       ^     v        v  ^     v        v  
     E     S  E     S  E     S  E     S       E     S  E     S  E     S  E     S       E     S  E     S  E     S  E     S  
  |--0-----0--x-----0-(0)----0--x-----1----|--1-----1--x-----1--1-----1--x-----3----|-(3)----3--x-----3-(3)----3--x-----0----|
  |--0-----1--x-----1--1-----1--x-----3----|--3-----3--x-----3--3-----3--x-----3----|--3-----3--x-----3--3-----3--x-----1----|
  |--2-----2--x-----2--2-----2--x-----2----|--2-----2--x-----2--2-----2--x-----0----|--0-----0--x-----0--0-----0--x-----0----|
  |--2-----2--x-----2--2-----2--x-----0----|--0-----0--x-----0--0-----0--x-----0----|--0-----0--x-----0--0-----0--x-----2----|
  |--0----(0)-x----(0)-0----(0)-x----------|-----------x-----------------x----(2)---|--2-----2--x-----2--2-----2--x----(3)---|
  |----------------------------------------|-----------x-----------------x----------|--3----(3)-x----(3)-3----(3)-x----------|

     ^     v        v        v  ^             ^     v        v  ^     v        v       ^     v        v  ^     v  ^     v   
     E     S  E     E.       S  E.            E     S  E     S  E     S  E     S       E     S  E     S  E     S  E     S
  |-(0)----0--x-----0--------0-(0)---------|--0-----0--x-----0-(0)----0--x-----1----|--1-----1--x-----0--0-----1--1-----1----|
  |--1-----1--x-----1--------1--1----------|--1-----1--x-----1--1-----1--x-----3----|--3-----3--x-----3--3-----3--3-----3----|
  |--0-----0--x-----0--------0--0----------|--2-----2--x-----2--2-----2--x-----2----|--2-----2--x-----2--2-----2--2-----2----|
  |--2-----2--x-----2--------2--0----------|--2-----2--x-----2--2-----2--x-----0----|--0-----0--x-----0--0-----0--0-----0----|
  |--3-----3--x-----3--------3--3----------|--0----(0)-x----(0)-0----(0)-x----------|-----------x----------------------------|
  |-----------x----------------------------|-----------x-----------------x----------|-----------x----------------------------|

     ^     v        v        v  ^     v       ^     v        v  ^     v        v       ^     v        v  ^     v        v    
     E     S  E     E.       S  E     S       E     S  E     S  E     S  E     S       E     S  E     S  E     S  E     S
  |-(0)----0--x-----0--------0--x-----0----|--0-----0--x-----0-(0)----0--x-----0----|--0-----0--x-----0-(0)----0--x-----1----|
  |--3-----3--x-----3--------3--x-----1----|--1-----1--x-----1--1-----1--x-----0----|--0-----1--x-----1--1-----1--x-----3----|
  |--1-----1--x-----1--------1--x-----2----|--2-----2--x-----2--2-----2--x-----2----|--2-----2--x-----2--2-----2--x-----2----|
  |--2-----2--x-----2--------2--x-----2----|--2-----2--x-----2--2-----2--x-----2----|--2-----2--x-----2--2-----2--x-----0----|
  |--2-----2--x-----2--------2--x----(0)---|--0----(0)-x----(0)-0----(0)-x-----0----|--0----(0)-x----(0)-0----(0)-x----------|
  |--0----(0)-x----(0)------(0)-x----------|----------------------------------------|----------------------------------------|

     ^     v        v  ^     v        v       ^              v        v  ^     v       ^        ^        ^  
     E     S  E     S  E     S  E     S       E.       E     E.       S  E     S       E     S  E     S  Q.      
  |--1-----1--x-----1--1-----1--x-----0----|-(0)-------x-----0--------0--x-----0----|--0--------0--------0-------------------|
  |--3-----3--x-----3--3-----3--x-----3----|--3--------x-----3--------3--x-----0----|--1--------0--------1-------------------|
  |--2-----2--x-----2--2-----2--x-----1----|--1--------x-----1--------1--x-----2----|--2--------2--------2-------------------|
  |--0-----0--x-----0--0-----0--x-----2----|--2--------x-----2--------2--x-----2----|--2--------2--------2-------------------|
  |-----------x-----------------x----(2)---|--2--------x-----2--------2--x----(0)---|--0--------0--------0-------------------|
  |-----------x-----------------x----------|--0--------x----(0)------(0)-x----------|----------------------------------------|

     
     H.                 
  |--L-------------------------------------|
  |--L-------------------------------------|
  |--L-------------------------------------|
  |--L-------------------------------------|
  |--L-------------------------------------|
  |----------------------------------------|

GUITAR SONG 10
----------------------------
 T/S = 3/4   100bpm

     ^              v        v        v       ^     v        v        ^  v     ^       ^              v        v        v  
     E.       E     E.       S  E     S       E     S  E     E.       S  E     S       E.       E     E.       S  E     S
  |--5--------x-----5--------5--x-----5----|--5-----5--x-----------------7----------|--5--------x-----5--------5--x-----5----|
  |--5--------x-----5--------5--x-----6----|--6-----6--x-----9--------9--9-----9----|--5--------x-----5--------5--x-----6----|
  |--5--------x-----5--------5--x-----7----|--7-----7--x-----7--------7--7-----7----|--5--------x-----5--------5--x-----7----|
  |--7--------x-----7--------7--x-----7----|--7-----7--x-----9--------9--9-----9----|--7--------x-----7--------7--x-----7----|
  |--7--------x-----7--------7--x-----5----|--5----(5)-x-----7--------7--7-----7----|--7--------x-----7--------7--x-----5----|
  |--5--------x----(5)------(5)-x----------|-----------x-----7--------7-(7)----7----|--5--------x----(5)------(5)-x----------|

     ^     v        v        ^  v     v       ^              v        v        v       ^     v        v        ^  v     v  
     E     S  E     E.       S  E     S       E.       E     E.       S  E     S       E     S  E     E.       S  E     S
  |--5-----5--x-----3-------(3)-x-----5----|--5--------x-----5--------5--x-----5----|--5-----5--x-----7--------7--x-----5----|
  |--6-----6--x-----3--------3--x-----5----|--5--------x-----5--------5--x-----6----|--6-----6--x-----9--------9--x-----5----|
  |--7-----7--x-----4--------4--x-----5----|--5--------x-----5--------5--x-----7----|--7-----7--x-----7--------7--x-----5----|
  |--7-----7--x-----5--------5--x-----7----|--7--------x-----7--------7--x-----7----|--7-----7--x-----9--------9--x-----7----|
  |--5----(5)-x-----5--------5--x----(7)---|--7--------x-----7--------7--x-----5----|--5----(5)-x-----7--------7--x----(7)---|
  |-----------x----(3)-------3--x----------|--5--------x----(5)------(5)-x----------|-----------x-----7--------7--x----------|

     ^              v        v        v       ^                       ^                ^              v        v        v     
     E.       E     E.       S  E     S       H                       Q                E.       E     E.       S  E     S
  |--5--------x-----5--------5--x-----5----|--5-----------------------3-------------|--5--------x-----5--------5--x-----5----|
  |--5--------x-----5--------5--x-----6----|--6-----------------------3-------------|--5--------x-----5--------5--x-----6----|
  |--5--------x-----5--------5--x-----7----|--7-----------------------4-------------|--5--------x-----5--------5--x-----7----|
  |--