Gametabs
Home
Tabs
Random

Campfire Music 1

Average rating: 4.000

8 ratings

Composer:

Tabber:

Style:

Instrument:

Created: October 01, 2007 at 12:00 AM

            Guitar Music 1
S.T.A.L.K.E.R.
Composed by: Andy Brick
Transcribed By: Justin Lincoln

All strings tuned down by 1 1/2 steps

bpm=100
      E  E  E  E  Q    E  E     E  E  E  E  Q    E  E
C#||-----------5--7----5-----|-----------5--7----5-----|
G#||--------6-------------6--|--------5-------------5--|
E ||-----7-------------------|-----5-------------------|
B ||--0----------------------|-------------------------|
F#||-------------------------|--0----------------------|
C#||-------------------------|-------------------------|

                           1st Ending----------------,
  E  E  E  E  Q    E  E     E  E  E  E  E  E  E  E
-----------7--8----7-----|-----------5--7--5---------||
--------4-------------4--|--------5-----------8------||
-----4-------------------|-----5-----------------0--*||
--4----------------------|--------------------------*||
-------------------------|--0------------------------||
-------------------------|---------------------------||

2nd Ending   Rall.-------  bpm=130
  E  E  E  E  E  E  E  E     E  E  E  E  E  E  E  E
-----------5--7--5--------|-----------5--7--5--5-----|
--------5-----------8-----|--------6--------------6--|
-----5-----------------0--|-----7--------------------|
--------------------------|--0-----------------------|
--0-----------------------|--------------------------|
--------------------------|--------------------------|

  E  E  E  E  E  E  E  E     E  E  E  E  E  E  E  E
-----------7--7--5--------|-----------7--8--7--7-----|
--------5-----------5-----|--------4-----------------|
-----5-----------------5--|-----4-----------------4--|
--------------------------|--4-----------------------|
--0-----------------------|--------------------------|
--------------------------|--------------------------|

  E  E  E  E  E  E  E  E     E  E  E  E  E  E  E  E
-----------5--7--5--------|-----------5--7--5--------|
--------5-----------8-----|--------6-----------6-----|
-----5-----------------0--|-----7-----------------7--|
--------------------------|--0-----------------------|
--0-----------------------|--------------------------|
--------------------------|--------------------------|

                                                       rall------    ^
  E  E  E  E  E  E  E  E     E  E  E  E    Q    E  E     E  E  E  E  H
-----------5--7--5--------|-----------7--7g8----7-----|-----------5--7--------|
--------5-----------5-----|--------4------------------|--------5-----5--------|
-----5-----------------5--|-----4------------------4--|-----5--------5--------|
--------------------------|--4------------------------|--------------5--------|
--0-----------------------|---------------------------|--0--------------------|
--------------------------|---------------------------|-----------------------|

bpm=80
  |--3--|  |--3--|  |--3--|  |--3--|     |--3--|  |--3--|  |--3--|  |--3--|
  E  E  E  E  E  E  E  E  E  E  E  E     E  E  E  E  E  E  E  E  E  E  E  E
-----------3--------3--------3--------|-----------3--------3--------3--------|
--------5-----5--------5--------5-----|--------5-----5--------5--------5-----|
-----4-----------4--------4--------4--|-----5-----------5--------5--------5--|
--------------------------------------|--------------------------------------|
--------------------------------------|--0-----------------------------------|
--0-----------------------------------|--------------------------------------|

  |--3--|  |--3--|  |--3--|  |--3--|     |--3--|  |--3--|  |--3--|  |--3--|
  E  E  E  E  E  E  E  E  E  E  E  E     E  E  E  E  E  E  E  E  E  E  E  E
-----------2--------2--------2--------|-----------2-----------------2--------|
--------3-----3--------3--------3-----|--------3-----3-----------3-----3-----|
-----5-----------5--------5--------5--|-----4-----------4-----4-----------4--|
--0-----------------------------------|--------------------------------------|
--------------------------------------|--------------------------------------|
--------------------------------------|--3-----------------3-----------------|

  |--3--|  |--3--|  |--3--|  |--3--|     |--3--|  |--3--|  |--3--|  |--3--|
  E  E  E  E  E  E  E  E  E  E  E  E     E  E  E  E  E  E  E  E  E  E  E  E
-----------0-----------------0--------|-----------0-----------------0--------|
--------1-----1-----------1-----1-----|--------1-----1-----------1-----0-----|
-----4-----------4-----4-----------0--|-----2-----------2-----2-----------0--|
--------------------------------------|--------------------------------------|
--3-----------------3-----------------|--------------------------------------|
--------------------------------------|--2-----------------2-----------------|

  |--3--|  |--3--|  |--3--|  |--3--|     |--3--|  |--3--|  |--3--|
  E  E  E  E  E  E  E  E  E  E  E  E     E  E  E  E  E  E  E  E  E  Q
-----------2-----------------2--------|-----------2-----------------2----|
--------5-----5-----------5-----5-----|--------4-----4-----------4-------|
-----3-----------3-----3-----------2--|-----2-----------2-----2----------|
--------------------------------------|----------------------------------|
--------------------------------------|--2-----------------2-------------|
--2-----------------2-----------------|----------------------------------|

  |--3--|  |--3--|  |--3--|  |--3--|     |--3--|  |--3--|  |--3--|  |--3--|
  E  E  E  E  E  E  E  E  E  E  E  E     E  E  E  E  E  E  E  E  E  E  E  E
-----------3--------3--------3--------|--3--------3--------3--------3--------|
--------5-----5--------5--------5-----|--------5-----5--------5--------5-----|
-----4-----------4--------4--------4--|-----5-----------5--------5--------5--|
--------------------------------------|--------------------------------------|
--------------------------------------|--0-----------------------------------|
--0-----------------0-----------------|--------------------------------------|

  |--3--|  |--3--|  |--3--|  |--3--|      |--3--|  |--3--|  |--3--|  |--3--|
  E  E  E  E  E  E  E  E  E  E  E  E      E  E  E  E  E  E  E  E  E  E  E  E
--2--------2--------2--------2---------|-----------2--------2--------2--------|
--------3-----3--------3--------3------|--3-----3-----3--------3--------3-----|
-----5-----------5--------5--------5S--|--4--4-----------4--------4--------4--|
--0------------------------------------|--------------------------------------|
---------------------------------------|--------------------------------------|
---------------------------------------|--3-----------------------------------|

                                         ^
  |--3--|  |--3--|  |--3--|  |--3--|     |--3--|  |--3--|  |--3--|  |--3--|
  E  E  E  E  E  E  E  E  E  E  E  E     E  E  E  E  E  E  E  E  E  E  E  E
-----------0--------0--------0--------|-----------0--------0--------0--------|
--1-----1-----1--------1--------1-----|--1-----1-----1--------1--------0-----|
-----4-----------4--------4--------0--|--2--2-----------2--------2--------0--|
--------------------------------------|--------------------------------------|
--3-----------------3-----------------|--------------------------------------|
--------------------------------------|--2-----------------2-----------------|

                                                                    ^
  |--3--|  |--3--|  |--3--|  |--3--|     |--3--|  |--3--|  |--3--|
  E  E  E  E  E  E  E  E  E  E  E  E     E  E  E  E  E  E  E  E  E  Q
-----------2--------2--------2--------|-----------2-----------------2----|
--------5-----5--------5--------5-----|--4-----4-----4-----------4--4----|
-----3-----------3--------3--------2--|-----2-----------2-----2-----2----|
--------------------------------------|----------------------------------|
--------------------------------------|--2-----------------2-------------|
--2-----------------2-----------------|----------------------------------|

bpm=100   swing it!
  E  E  E  E  E  E  E  E     E  E  E  E  E  E  E  E
--------3-----------3-----|--------2--------------2--|
--------5-----------5-----|--------3--------------3--|
--------4--4--------5--5--|--------5--5--------4--4--|
--------------------------|--0--0--------------------|
--------------0--0--------|--------------------------|
--0--0--------------------|--------------3--3--------|

  E  E  E  E  E  E  E  E     E  E  E  E  Q    E  E     E  E  E  E  E  E  E  E
--------0-----------0-----|--------2----------2-----|--------3-----------3-----|
--------1-----------1--0--|--------5----------4-----|--------5-----------5-----|
--------4--0--2-----2-----|--------3--2-------2--0--|--------4--4--------5--0--|
--------------------------|-------------------------|--------------------------|
--3--3--------------------|--------------2----------|--------------0--0--------|
--------------2--2--------|--2--2-------------------|--0--0--------------------|

  E  E  E  E  E  E  E  E     E  E  E  E  E  E  E  E
--------2-----------2-----|--------0-----------0-----|
--------3-----------3-----|--------1-----------1--0--|
--------5--5--------4--4--|--------4--0--2-----2-----|
--0--0--------------------|--------------------------|
--------------------------|--3--3--------------------|
--------------3--3--------|--------------2--2--------|

end swing
  |--3--|  |--3--|  |--3--|
  E  E  E  E  E  E  E  E  E  Q       E  E  E  E  E  E  Q
-----------2-----------------2----|-----------3--------3----|
--5-----5-----5-----------4--4----|--------5--5-----5--5----|
-----3-----------3-----2-----2----|-----4-----4--4-----4----|
----------------------------------|-------------------------|
--------------------2--------2----|-------------------------|
--2-------------------------------|--0-----------------0----|

bpm=130
   ^     ^   v     ^  ^ v ^ v     ^     ^   v        ^ v ^ v
   Q     E   Q     E  S S S S     Q     E   Q     E  S S S S
------------------------------|------------------------------|
------------------------------|------------------------------|
----------------------------x-|------------------------------|
--(9)-------(9)---------x-----|--(9)-------(9)-------x-x-x-x-|
---7-----x---7--------x-x-x-x-|---7-----x---7--------x-x-x-x-|
---0-----x---8-----7--x-x-x-x-|---0-----x---8-----5--x-x-x-x-|

   ^     ^   v     ^  ^ v ^ v    ^      ^  ^    ^  ^ v ^ v
   Q     E   Q     E  S S S S    Q      E  Q    E  S S S S
------------------------------|----------------------------|
------------------------------|----------------------------|
----------------------------x-|--5----5g9--7----7----------|
--(9)-------(9)---------x-----|--5----5g9--7----7----------|
---7-----x---7--------x-x-x-x-|--3----3g7--5----5----------|
---0-----x---8-----7--x-x-x-x-|--3----3g7--5----5--x-x-x-x-|

   ^     ^   v     ^  ^ v ^ v     ^     ^   v     ^  ^ v ^ v
   Q     E   Q     E  S S S S     Q     E   Q     E  S S S S
------------------------------|------------------------------|
------------------------------|------------------------------|
----------------------------x-|------------------------------|
--(9)-------(9)---------x-----|--(9)-------(9)-------x-x-x-x-|
---7-----x---7--------x-x-x-x-|---7-----x---7--------x-x-x-x-|
---0-----x---8-----7--x-x-x-x-|---0-----x---8-----5--x-x-x-x-|

   ^     ^   v     ^  ^ v ^ v    ^    ^  v    ^  ^ v ^ v
   Q     E   Q     E  S S S S    Q    E  Q    E  S S S S
------------------------------|--------------------------|
------------------------------|---------------x--x-x-----|
----------------------------x-|--5-------7----x--x-x-x-x-|
--(9)-------(9)---------x-----|--5----x--7-------x-x-x-x-|
---7-----x---7--------x-x-x-x-|--5----x--7----L--x-x-x-x-|
---0-----x---8-----7--x-x-x-x-|--5----x--7----L--x-x-x-x-|

  ^      ^    ^  ^    ^        ^  ^    ^  ^     ^        ^  ^        ^    ^
  Q      Q    E  Q    E     E  E  Q    E  Q     E     E  E  E  E  E  Q    E
-------------------------|-------------------------|--------------------------|
-------------------------|-------------------------|--------------------------|
-------------------------|-------------------------|----------------------5S--|
--2----3g5----4--2----2--|--L--2--5----5--7\----2--|--L--2--5-----4--5----5S--|
--2----5g7----5--3----2--|--L--0--5----5--5\----2--|--L--2--7--x-----3----3S--|
--0-------------------0--|--L--0--3----3--5\----0--|--L--0--0-----------------|

     ^  ^    ^  ^     ^            ^    ^  ^    ^        ^  ^    ^  ^     ^
  E  E  Q    E  Q     E     Q      Q    E  Q    E     E  E  Q    E  Q     E
-------------------------|-------------------------|-------------------------|
-------------------------|-------------------------|-------------------------|
--7-----7----9--9\-------|-------------------------|-------------------------|
--7-----7----9--9\----2--|--L----3g5----4--2----2--|--L--2--5----5--7\----2--|
--5--5--5----7--7\----2--|--L----5g7----5--3----2--|--L--0--5----5--5\----2--|
-----5----------------0--|--L-------------------0--|--L--0--3----3--5\----0--|

     ^  ^    ^  ^    ^         ^  ^    ^  ^
  E  E  Q    E  Q    E      E  E  Q    E  Q.         E  E  E  Q    E  E  E
-------------------------|------------------------|--------------------------|
-------------------------|------------------------|-----------7--------------|
---------------------5S--|--7-----7----9--9\------|--------7-------7---------|
--L--2--5----4--2----5S--|--7-----7----9--9\------|-----9-------------9------|
--L--2--7----5--3----3S--|--5--5--5----7--7\------|--7-----------------------|
--L--0-------------------|-----5------------------|----------------------7\--|

  E  E  E  Q    E  E  E      E  E  E  Q    E  E  E
--------------------------|--------------------------|
-----------3--------------|-----------7--------------|
--------4-------4---------|--------7-------7---------|
-----5-------------5------|-----9-------------9------|
--3-------------------3S--|--7-----------------------|
--------------------------|----------------------7\--|

  E  E  E  E  E  E  E  E     E  E  E  Q    E  E  E
--------------------------|--------------------------|
--------------------------|-----------7--------------|
--------2--------0-----5--|--------7-------7---------|
-----4--------5-----7-----|-----9-------------9------|
--2--------3--------------|--7-----------------------|
--------------------------|----------------------7\--|

  E  E  E  Q    E  E  E      E  E  E  Q    E  E  E
--------------------------|--------------------------|
-----------3--------------|-----------7--------------|
--------4-------4---------|--------7-------7---------|
-----5-------------5------|-----9-------------9------|
--3-------------------3S--|--7-----------------------|
--------------------------|----------------------7\--|

                             ^      ^    ^  ^    ^        ^  ^    ^  ^     ^
  E  E  E  E  E  E  E  E     Q      Q    E  Q    E     E  E  Q    E  Q     E
--------------------------|-------------------------|-------------------------|
--------------------------|-------------------------|-------------------------|
--------2--------0-----5--|-------------------------|-------------------------|
-----4--------5-----7-----|--2----3g5----4--2----2--|--L--2--5----5--7\----2--|
--2--------3--------------|--2----5g7----5--3----2--|--L--0--5----5--5\----2--|
--------------------------|--0-------------------0--|--L--0--3----3--5\----0--|

     ^  ^        ^    ^         ^  ^    ^  ^     ^            ^    ^  ^    ^
  E  E  E  E  E  Q    E      E  E  Q    E  Q     E     Q      Q    E  Q    E
--------------------------|-------------------------|-------------------------|
--------------------------|-------------------------|-------------------------|
----------------------5S--|--7-----7----9--9\-------|-------------------------|
--L--2--5-----4--5----5S--|--7-----7----9--9\----2--|--L----3g5----4--2----2--|
--L--2--7--x-----3----3S--|--5--5--5----7--7\----2--|--L----5g7----5--3----2--|
--L--0--0-----------------|-----5----------------0--|--L-------------------0--|

     ^  ^    ^  ^     ^        ^  ^    ^  ^    ^         ^  ^    ^  ^     ^
  E  E  Q    E  Q     E     E  E  Q    E  Q    E      E  E  Q    E  Q     E
-------------------------|-------------------------|-------------------------|
-------------------------|-------------------------|-------------------------|
-------------------------|---------------------5S--|--7-----7----9--9\-------|
--L--2--5----5--7\----2--|--L--2--5----4--2----5S--|--7-----7----9--9\----2--|
--L--0--5----5--5\----2--|--L--2--7----5--3----3S--|--5--5--5----7--7\----2--|
--L--0--3----3--5\----0--|--L--0-------------------|-----5----------------0--|

  W
-------------------||
-------------------||
-------------------||
--L----------------||
--L----------------||
--L----------------||

Duration Legend
---------------
W - whole
H - half
Q - quarter
E - 8th
S - 16th
T - 32nd
X - 64th
. - note dotted
|-n-|  - n-tuplets

        
Comments

@poeticjedi (May 20, 2007 at 7:00 AM)

UBER, cept i dono how to tune that, what electronic tuners do u reccomend (nylon acous) thx man i love your work here


@moss197 (May 20, 2007 at 7:03 AM)

Made the page Kabukibear :) Your good at what you do lol, thanx man!


@moss197 (May 20, 2007 at 7:21 AM)

Hey Poetic go here (http://two.xthost.info/kabukibear/tune.mid) for the tune from low to high, or you can go to http://www.aptuner.com/cgi-bin/aptuner/apmain.html for an electronic tuner. Kabukibear recommended it. :)


@moss197 (May 20, 2007 at 9:25 AM)

Hey man check out the forum under "S.T.A.L.K.E.R" on page 2 there is some great stuff. Personally I prefer the APtuner, great program. :) - Thanx again Kabukibear


@instago (June 10, 2007 at 4:31 AM)

Great tabs man! I also suggest APTuner. I hope you do some more STALKER tabs :).


@shinynut (August 01, 2007 at 3:02 AM)

hey thanks man.. outstanding job.. i hope you can do some more.. you should post a video of you playing it on youtube..


@nyronic (October 20, 2007 at 6:43 PM)

Amazing, loved this song. Would actually actually just hang out by the camp fires in game and listen to it sometimes. :)

Gonna have to learn this.


@vaporeonfarts (November 09, 2007 at 4:25 AM)

great chord pergression very Sor-esque


@Don (November 24, 2007 at 6:09 PM)

Thanks! Would pick up GUITAR 3


@Cдохните суки (November 30, 2007 at 9:34 PM)

Хуйня какая-то, а не подборка. У вас пальцы ис жопы растут!!!!