Gametabs
Home
Tabs
Random

In-Game Music

Average rating: 5.000

1 ratings

Composer:

Tabber:

Style:

Instrument:

Created: May 18, 2013 at 12:00 AM

            Spy vs. Spy on the NES
Released in 1986
Composed by Nick Scarim

Guitar 1

E|-12---------9-------12------------------------------------------------------|
B|-------12---------------10---12-10-9--------------------------10-------9----|
G|-------------------------------------------9--------------11--------11------|
D|----------------------------------------------------------------------------|
A|----------------------------------------------------------------------------|
E|----------------------------------------------------------------------------|

E|---------------------------9-------------------------------------|
B|------9-12---------------9----------------9-12--------------9-12-|
G|----9---------9--------9--------9-------9---------9-------9------|
D|-11--------11-------11-------11------11--------11------11--------|
A|-----------------------------------------------------------------|
E|-----------------------------------------------------------------|

Guitar 2

E|---------------------------------------------------------|-----------------|
B|------9-12-----------------10----------------------------|-------9-------7-|
G|----9---------9----------9---------------------11--------|-----8-------8---|
D|-11--------11---------11---------11---------11-----------|-6-9-----6-9-----|
A|-------------------12---------12-------9-12-------9-12---|-----------------|
E|---------------------------------------------------------|-----------------|

Play this twice, only on the second time change the very last note
from fret 7 on the B string to fret 9 on the B string.

Bass

G|----------------------------------------------------------|
D|----------------------------------------------------------|
A|--4------4------------------------------------------------|
E|----------------5------5------2------2------4------4------|

        
Comments

@v.2 (September 20, 2013 at 4:14 AM)

Nice tab