Gametabs
Home
Tabs
Random

White Dragon

Average rating: 5.000

3 ratings

Composer:

Tabber:

Style:

Instrument:

Created: March 22, 2010 at 12:00 AM

            White Dragon  ~Shiroi Ryuu~     from Spirited Away                      

Joe Hisaishi >> Transc. from Official Piano Solo Album >> tab by Diralark

Guitar (Capo 6)
        ^                                      ^                        ^     
     E  E  T E.  E  T E.  E.     Q    Q    S S Q.        H        E  E  Q     
E||---------------------------|-----------------------|----------------------|
B||---------------------------|-----------------------|----------------------|
G||---------------------------|-----------------------|----------------------|
D||--4-------2----------------|----------------0------|--L-----------4--2----|
A||-----2--------2----0-------|------------2-4--------|-----------2-----4----|
E||-----0-----------------2---|--L-------------3------|--L-------------------|


                                      ^                             
  H        E  E  E  E     H        E  E  E  E     W                 
-----------------2-----|--0--------------------|-------------------|
--------------------0--|-----------------3-----|--2----------------|
-----------------------|-----------------------|-------------------|
--L--------------------|--------------0-----4--|-------------------|
--L-----------2--------|--------------2--------|-------------------|
-----------------------|-----------------------|-------------------|


    ^                                                                      
    E  E  E  E  Q.     E     Q    Q    Q.     E     Q    E  Q    E  E  E   
|-------------------------|----------------------|---------------------2--|
|---0--0--0--2--2------2--|--3----2--------------|--0----0-------0--0-----|
|*------------------------|--0---------2---------|------------------------|
|*--0-----------2---------|------------2------4--|--0-------0-------------|
|---2-----------2---------|--2---------2---------|--2-------2-------------|
|-------------------------|----------------------|------------------------|


  ^                                               ^                      
  Q.     Q    E  E  E     E  Q    Q.     E  E     Q.     E  E  E  E  E   
--2-----------------2--|--2--0-----------------|------------------------|
--------------0--0-----|-----------------2--3--|--2---------0-----------|
-----------------------|-----------------------|---------2--------------|
--0--------------------|-----------------------|---------------4-----2--|
-----------------------|--4-------0------------|--4---------------2-----|
--3------3-------------|--5--------------------|--5---------------------|


                 ^          ^             ^          ^          
  E  E  E  E     Q    E  E  Q    E  E     Q    E  E  Q.     E   
--------------|-------------0-------0--|--2----0--2--3------3--|
--------0--2--|--3----2--3-------3-----|-----------------------|
--------------|------------------------|-----------------------|
--0-----------|------------------------|--2----------1---------|
--------2--0--|--2----------4----------|-------------0---------|
-----2--------|--3----------3----------|--2--------------------|


                           ^         ^                                    
  E  E  E  E  Q.     E     Q.     E  H           E  E  E  E  E  E  E  E   
--2--------2--0---------|---------------------|--------------------------|
-----0--0---------------|--0------------------|-----0--3--0-----------0--|
---------------------2--|---------------------|--------------2--0--------|
------------------------|--2---------1--------|--2-----------------2-----|
--2-----------4---------|--2------2--2--------|--3--3-----3--3--3-----3--|
--3-----------2---------|---------------------|--------------------------|


  E  E  E  S S E  S E.  E     E  E  E  E  E  E  E  S S  
------------------0--------|---------------------------|
--0----------0-3----3------|-----0--3--0-----------0-0-|
-----------2---------------|--------------2--0---------|
---------------0--------0--|--2-----------------2--2---|
--2--2-----2---2--2-----2--|--3--3-----3--3--3-----3---|
---------------------------|---------------------------|


  E  E  E  S S S S E  E  S S    E  E  E  E  E  E  E  E   
-----------------0-----------|--0--0--0--------------0--|
-------------0-3---3-----0-3-|-----------------3--3-----|
-----------2-----------------|--------------------------|
--0-------------------0--0---|--------------------------|
--2--2---------2---------2---|--3--------3--L--3-----0--|
-----------------------------|--5-----5--5--L--5--------|


                             ^                          ^                      
  E  E  E  E  E  E  E  E     E  E  E  E  E  E  E  E     Q    E  E  E  Q    E   
--2-----------------------|--3--2-----------0-----0--|------------------------|
-----------------------0--|--------3--0--3-----3-----|------------------------|
--------------------------|--------------------------|--0-------0----------4--|
--0--0-----0--L--0-----0--|--2--------2--4-----------|-------------4--4-------|
--2--2-----2--L--2-----2--|--------------2--------2--|--3----3--3--5----------|
--------------------------|--------------------------|------------------------|


  ^                          ^                       
  E  E  E  E  E  E  E  E     Q    E  E  E  E  E  E   
--3--2-----------0--2--0--|-------------------0--3--|
--------3--0--3-----------|-------------------------|
--------------------------|--0-------0--------------|
--2--------2--4-----------|-------------4--4--------|
--------------2--------2--|--3----3--3--5-----------|
--0-----------------------|-------------------------|


  ^           ^                                         
  E  E  E  E  E  S  S E  E     E  E  E  E  E  E  E  E   
--5-----7-----5--7p-5-------|--------------0-----------|
----------------------8--7--|--0-----------------0--3--|
----------------------------|-----0--7--0-----0--------|
----------------------------|--------------0-----------|
-----7--------6-------------|--7-----7-----------------|
--8-----------7-------------|--------------------------|


  ^           ^                                                                
  E  E  E  E  E  E  E  E     E  Q    E  E  Q    E     E  E  E  E  E  E  E  E   
--0-----------0--3--2-----|--0---------------------|--------------------------|
--------0--3-----------3--|------------------------|--------------------------|
-----0-----0--2-----------|--2--2----2--1--1----1--|--------------------0-----|
--------------0-----0-----|--2--2-------2--2-------|--------2-----3-----------|
--3--------3--------------|------------------------|--0--------0-----0-----0--|
--------------------------|------------------------|--1--1-----1--------------|


             ^                                                 ^          
  E  Q    E  Q.     E     Q    E  E  E  E  E  E     E  Q    E  Q.     E   
-----------------------|-------------------------|--0----------2---------|
-------------0---------|-------0-----1-----3-----|-----------------------|
--2--------------------|-------------------------|-----------------------|
-----------------------|-------------------------|-----------------------|
--2-------2--2------2--|--2-------2-----2-----2--|--0-------0---------0--|
--0--0----0--0------0--|--0----------0--------0--|--2--2-------2------2--|


  ^                                                        ^                    
  Q.     S T T E  Q    E     W                   Q         Q    Q    Q    Q     
-----------3-4-5----------|-------------------|--------||--0----7----5---------|
--------------------------|-------------------|--------||-----------------3----|
--------------------------|-------------------|-------*||----------------------|
--------------------------|-------------------|-------*||----------------------|
--0---------------0----0--|--L----------------|--L-----||--0-------------------|
--2------2-------------2--|--L----------------|--L-----||--1-------------------|


  ^                                                                          
  Q    Q    Q    Q       E  E  E  E  E  E  E  E     E  E  E  E  E  E  E  E   
-------3----1---------|--0-----------0-----------|--0-----------0-----------|
--1-------------------|-----0-----0-----0-----0--|-----0-----0-----0-----0--|
-----------------2----|--2-----2-----2-----2-----|--2-----2-----2-----2-----|
----------------------|--------------------------|--------------------------|
----------------------|--------------------------|--------------------------|
--3---------3---------|--2--------2--2--2-----2--|--2--------2--2--2-----2--|


  W                   W                  
--7----------------|--L----------------||
-------------------|-------------------||
-------------------|-------------------||
-------------------|-------------------||
--9----------------|--L----------------||
-------------------|-------------------||




Duration Legend
---------------
W - whole
H - half
Q - quarter
E - 8th
S - 16th
|-n-|  - n-tuplets


Tablature Legend
----------------
L - tied note
x - dead note
g - grace note

^ - brush up
v - brush down


        
Comments

@Brave Toaster (March 24, 2010 at 8:15 AM)

I remember this song! It was one of my favorites from the movie. I wonder how is it to transcribe from piano stuff. ... I guess it is me who doesn't know much about music. Excelent job, by the way! It sounds awesome! Thank you for giving another tablature to us!


@diralark (March 24, 2010 at 1:58 PM)

Thanks Brave Toaster. I doesn't know much about music myself, I'm really not able to create a tab by myself or play a lot of tabs. It's why I just import midi files or recopy piano score to Guitar Pro, so i merge usefull tracks and after that, begin the game : deleting useless notes without denature the tune... I m sure everybody can do same, but i guess not everybody can like the deleting game, its a fun one for me -(^^)-


@Brave Toaster (March 26, 2010 at 1:04 AM)

Ah, so that's how you do it! You make it sound simple, but I'm sure it takes a lot of work. I've learned so far that you don't need to be a music pro to make music, if you know what I mean, so I'm sure you can create some nice stuff! Thank you for your nice contributions, sir Diralark!