Gametabs
Home
Tabs
Random

The Sixth Station

Average rating: 5.000

5 ratings

Composer:

Tabber:

Style:

Instrument:

Created: April 09, 2021 at 12:00 AM

            The Sixth Station
Spirited Away
Joe Hisaishi
Arranged for Guitar by Emilien Delcour
Tempo = 70
Guitar

Video example : https://youtu.be/9FeGraph0Kw

Legend
L - tied note
h - hammer on/pull off
~ - vibrato
v - brush up
^ - brush down


     ^                                                                       
E |--10---|-----------0----------------|-------|-----------0----------------|
B |--7----|--------------3-------------|-------|--------------3-------------|
G |--9----|--------0-------------------|-------|--------0--------------7----|
D |--7----|-----------------4L---------|--4----|-----------------4L----4L---|
A |--9----|-----2----------------------|-------|-----3----------------------|
E |--7----|--0-------------------------|-------|--0-------------------------|

                                                                           
--12------------|--0-------------------------|----------------------------|
-----10-8--7----|-----------3----------------|-----------3----------------|
----------------|--------0-----4-------------|--------0-----5-------------|
--4-------------|-----2-----------2----------|-----4-----------4----------|
----------------|--3-------------------------|--5-------------------------|
----------------|----------------------------|----------------------------|

                                                          
-----7--0--5----------------|-----3h----0L----------0----|
-----0-----5--3-------------|--------0-------------------|
--------0-------------------|----------------------------|
-----------------4L---------|--4-------------------------|
----------------------------|----------------------------|
--0-------------------------|----------------------------|

                             
-----7-----7--12------------|
--------10-------12L--------|
--------0--9--7-------------|
----------------------------|
-----------------9L---------|
--0--8----------------------|

                                                     
--------------5h----7-----------------5-------------|
--12-------------------------------------8--7-------|
----------------------------------------------------|
----------------------------------------------------|
--9-------------------------------------------------|
----------------------------------------------------|

                                                                           
--0-------------------------|--0-------------------------|-----3-----7----|
-----------3-----------3----|-----0----------------------|----------------|
--------0-----4-------------|--------0--7--5-------------|----------------|
-----2-----------2----------|-----4-----------4L---------|--4-------------|
--3-------------------------|--5-------------------------|----------------|
----------------------------|----------------------------|----------------|

                                 ^           
--8--10---|-----10----8L---|--8--7----------|
--8-------|--------6L-6L---|--6--6----------|
----------|--9-----9L-9L---|--9--9----------|
----------|----------------|----------------|
----------|----------------|----------------|
----------|----------------|----------------|

                                                                                
--------------------------------------1L----------------------------------------
--------------------------------------------------------------------------------
--------------------------2-----------------------------------------------------
--------------0-----------------------------------------------------------------
--------------------------------------------------------------------------------
--3-----------------------------------------------------------------------------

                                                                               
------1-------------|-----------1----------------|--1--------1L-1-------------|
---------3--1-------|--------1--------------1----|----------------------------|
---------------3----|--2-------------------------|--------1-------------------|
--------------------|-----1----------------------|-----3----------------------|
--------------------|----------------------------|----------------------------|
--------------------|--3-------------------------|--4-------------------------|

                                     ^          ^       ^     ^          ^     
-----------2L-2-------------|--15----13-11---|--10---|--13----11-9----|--8----|
----------------------------|--------13------|--10---|--13----11------|--8----|
--------2-------------------|----------------|-------|----------------|--10---|
-----1----------------------|--------12------|--11---|--13----11------|--9----|
--0-------------------------|----------------|-------|----------------|-------|
----------------------------|----------------|-------|----------------|-------|

  ^  ^       ^       ^       ^                                  
--11-9----|--8----|--6----|--8----|----------------------------|
--11-9----|--8----|--6----|--8----|--------------------8--9----|
--10-8----|--7----|--6----|--9----|--8--0-----8--6-------------|
--11-8----|--7----|--6----|--8----|--------6-------------------|
----------|-------|-------|-------|--8--------------8----------|
----------|-------|-------|-------|----------------------------|

                                                          
----------------------------|----------------------------|
--------------------8--9----|--------------------8--9----|
--8--0-----8--6-------------|--8--0-----8----------------|
--------6-------------------|--------------11------------|
--6--------------6----------|--------11------------------|
----------------------------|--9--------------9----------|

                                                                           
----------------------------|----------------------------|----------------|
--------------------8--9----|--8--9--8--9--8--9--8-------|----------------|
--8--0-----8--6-------------|----------------------------|----------------|
--------6-------------------|----------------------------|----------------|
----------------------------|----------------------------|-----------0L---|
--8--------------8----------|----------------------------|--3--6----------|

                      ^                                                
----------------|-----0----------|-----------0----------------|--2----|
----------------|-----5----------|--------------3--------0----|-------|
----------------|----------------|--------0-------------------|-------|
----------------|-----5----------|-----------------4----------|-------|
--0-------------|----------------|-----2----------------------|-------|
-----1-----3L---|--3-------------|--0-------------------------|-------|

                                                                      
--------------0--------5----------------------------|-----------10---|
--------------------5-----3-------------------------|----------------|
--------------0-------------------------------------|----------------|
--------------------------------4L------------------|--4-------------|
--------3-------------------------------------------|----------------|
--0-------------------------------------------------|----------------|

                                                          
--7--------------------5----|--7--0----------------------|
----------------------------|----------------------------|
-----------7----------------|--------0--7--5-------------|
--------------9-------------|--0--4-----------4----------|
-----7--10-------7----------|----------------------------|
--8-------------------------|----------------------------|

                                                                                
-----------------------------------------0--------------------------------------
--------------------------------------------3-----0-----------------------3-----
--------------------------0L----------0--------5--------------------------0-----
--------------------------------------------------------------4-----------------
--------------2-----------------------------------------------------------------
--0-----------------------------------------------------------------------------

                       ^     ^  ^       ^       ^              
--------------------|--0-----2-------|--5----|--7--------7----|
--------------------|-----------8----|--7----|--5-------------|
--------------------|--0-----2-------|--5----|--5-------------|
--------------------|-----------9----|--9----|--7-------------|
--------------------|--------0--0----|--0----|--0-------------|
--------------------|--3-------------|-------|----------------|

                                              ^           
--7--------------5--10-7----|--0--------------2----------|
----------------------------|--0--------3-----1----------|
-----------7--------11-7----|--------0-----5--2----------|
--------------9-------------|-----4-----------0----------|
-----7--10------------------|--5-------------------------|
--8--------------0----------|----------------------------|

                                                          
-----7--0--5----------------|-----3-----0L----------0----|
-----0-----5--3-------------|--------0L-0----------------|
--------0-------------------|----------------------------|
-----------------4L---------|--4-------------------------|
----------------------------|----------------------------|
--0-------------------------|----------------------------|

                             
-----7-----7--12------------|
--------10-------12L--------|
--------0--9--7-------------|
----------------------------|
-----------------9L---------|
--0--8----------------------|

                                                     
--------------5h----7-----------------5-------------|
--12-------------------------------------8--7-------|
----------------------------------------------------|
----------------------------------------------------|
--9-------------------------------------------------|
----------------------------------------------------|

                                                          
--0-------------------------|--0-------------------------|
-----------3-----------3----|-----0----------------------|
--------0-----4-------------|--------0--7--5-------------|
-----2-----------2----------|-----4-----------4----------|
--3-------------------------|--5-------------------------|
----------------------------|----------------------------|

                                                          
-----0-----0-----0-----0----|-----0-----0-----0-----0----|
--12----13----15----13------|--12----10----12----8-------|
--12----14----16----14------|--12----11----12----9-------|
----------------------------|----------------------------|
----------------------------|----------------------------|
----------------------------|----------------------------|

                                                          
-----0-----0-----0-----0----|-----0-----0-----0-----0----|
--10----12----15----17------|--15----12----10----15------|
--11----12----16------------|--16----12----11----16------|
----------------------------|----------------------------|
----------------------------|----------------------------|
----------------------------|----------------------------|

                                                          
-----0-----0-----0-----0----|-----0-----0-----0-----0----|
--12----13----15----13------|--12----10----12----8-------|
--12----0-----16----14------|--12------------------------|
--------------0-------------|--------10----12----9-------|
----------------------------|----------------------------|
--0-------------------------|--0-------------------------|

                                                          
-----0-----0-----0-----0----|-----0-----0-----0-----0----|
--10----12----15----17------|--15----12----10----15------|
--11----12----16------------|--16----12------------------|
----------------------------|--------------10----16------|
--0-----------0-------------|--0-----------0-------------|
----------------------------|----------------------------|

                                                          
-----0-----0-----0-----0----|--14-0--12-0-----0-----0----|
--12----10----12----15------|--15----13----15----13------|
--12----11----12----16------|--16----------16----14------|
--0-----------0-------------|--0-------------------------|
----------------------------|----------------------------|
----------------------------|----------------------------|

  ^           ^              
--10-7--------14------------|
--7-----------10-12---------|
--7-----------12-14---------|
--7-----------0-------------|
--0-------------------------|
----------------------------|

                    ^
--------------------10L---10------------------------||
-----------------7--7L----7-------------------------||
--------------9-----9L----9-------------------------||
-----------7--------7L----7-------------------------||
--------9-----------9L----9-------------------------||
--7-----------------7L----7-------------------------||


        
Comments

@Knightmare_X (April 18, 2021 at 5:24 PM)

e--12-- B------ G------ D--4--- A------ E------

...ow...