Gametabs
Home
Tabs
Random

Tabi no Tochuu (animelodies1 version)

Average rating: 5.000

6 ratings

Composer:

Tabber:

Style:

Instrument:

Created: February 20, 2015 at 12:00 AM

            arrangement: animelodies1

Standard tuning
Capo: 4

E||------------------------------------0-----------0--------||
B||--------------2---------------1----------3----------3----||
G||*--2--h4---------2-----0--------------------2-----------*||
D||*------------------2------2-----------------------------*||
A||--------------0--------3---------------------------------||
E||------------------------------------1-----------3--------||

------------------------------0---------0----------------------
-----------2--------------1------3----------1--3---------------
--2--h4-------2----0----------------2--------------------------
----------------2-----2----------------------------------------
-----------0-------3-------------------------------------------
------------------------------1---------0----------------------

--0--------0--------0--------0---------------------------------
--------3--------3--------3--------0---------------------------
-----2--------2--------2--------2------------------------------
--0------------------------------------------------------------
---------------------------------------------------------------
---------------------------------------------------------------

--------------------------------------------------------------------
--2--3--2----------0----1---3---1--------1-1-1-0--------------------
--2-------------2-------2----------------0----------0---------------
--------------2---------------------3-----------------2-------------
--0---------------------------------3-----------------3-----2-------
-------------------0----1----------------3--------------------------

-----------------------------------------------------------------------------------
----0--2--3--2----------0----1---3---1-----------1-1-1-0---------1-------------0---
--2----2-------------2-------2-------------------0----------0--------------2-------
-----------------2---------------------3-------------------------------------------
-------0-------------------------------3--------------------2----3-----2-----------
------------------------0----1-------------------3-----------------------------0---

-----------------------------------------------------------------------------------
---2---3---2-----------1-3-1-------------1-1-1-0----------------------0------------
---2--------------2----2------------2----0-----------0--------------2--------------
---------------2-----------------3----------------0------2-------------------------
---0--------------0-----------3----------------------2---3-----3-2-----------------
-----------------------1-----------------3------------------3----------------------

-------------------------------------------------------------------------------------
---2---3---2-----------1-3-1-------------1-1-1-0----------1----------0---------------
---2--------------2----2------------2----0-----------0-----------0---2---1-----------
---------------2-----------------3----------------0-----------2--------------2-------
---0--------------0-----------3----------------------2----3--------------------------
-----------------------1-----------------3---------------------------0---------------

---0-0-0-----0----------------------------------------------------------------------
---1---------1---3--1---0---0-----0-----------3--1--0-----0-----------1-----1--3----
-------------2----------1------2--------1-----2--------2-----0-----0--------2--0----
-------------2-----------------------2--------------------------2-------------------
---0------------------------------2-----------------------------3--------2----------
------------------------0---------------------1--------------------------------0----

---0-0-0-----0----------------------------------------------1---0------------------
---1---------1---3--1---0---0-----0------1----3--1--0-----1--------------------3---
-------------2----------1------2--------------2--------2--------------0-----2------
-------------2-----------------------2-----------------------------2-----0---------
---0------------------------------2-----------------------------3------------------
------------------------0---------------------1------------------------------------

---------------------------------------------------------------------0---------------------
--0---------0---------0------------------------0--------------0--1----------3--------1-----
--2-----2---1--1--2-----------2-------1---2-----------2-----------------2---------2--------
-----4--------------------2-------2---------------2-------2--------------------0-----------
--2-------------------0--------------------------------------------------------------------
------------0----------------------------------3---------------------2---------------------

--0-------------0--1-----5-----3------------1------0-----------0--------1-----0---------------
---------3---------------------0----0--3----1------------1--3--------3-----------0------------
------2-----2---------------2----2--------------0-----0--------2-----------2-----1------------
-------------------------0-----------------------------------------3--------------------0--2--
--------------------------------------------3------------------2---------------------2--------
--1------------------------------------------------------------------------------0------------

---------------------------------------------------------------0---------------------
----------------0------------------------0--------------0--1----------3--------1-----
---------1--2-----------2-------1---2-----------2-----------------2---------2--------
--------------------2-------2---------------2-------2--------------------0-----------
----------------0--------------------------------------------------------------------
-----------------------------------------3---------------------2---------------------

--0-------------0--1-----5-----3------------1------0-----------0---------1-------0-------
---------3---------------------0----0--3----1--------------1---------3---0---------------
------2-----2---------------2----2--------------0--------2-----2-------------1-------2---
-------------------------0----------------------------2-----------3------------------2---
--------------------------------------------3------------------2---------------------0---
--1----------------------------------------------------------------------0---------------
        
Comments

@Basisti94 (February 21, 2015 at 10:41 AM)

This is great. I've been thinking about reworking my old arrangement to use capo too (why doesn't it do that in the first place? couldn't tell you) but I guess there's no need when I can just play this :P


@PcePce (October 25, 2018 at 12:34 AM)

Beautiful song, great tab.

Thanks :D