Gametabs
Home
Tabs
Random

Main Menu

Average rating: No ratings

Composer:

Tabber:

Style:

Instrument:

Created: June 29, 2019 at 12:00 AM

            E|--------8------12-------9--------||-----------------------------------------------|
B|----10-----------------12--------||---13---12---10-----12----10---8---10----------|
G|--9--------------------12--------||-----------------------------------------------|
D|---------------------------------||-----------------------------------------------|
A|---------------------------------||-----------------------------------------------|
E|---------------------------------||-----------------------------------------------|

E|--------8------12-------9--------||-----------9-----12---13---12------------------|
B|----10-----------------12--------||-------12--------------------------------------|
G|--9--------------------12--------||----12-----------------------------------------|
D|---------------------------------||-----------------------------------------------|
A|---------------------------------||-----------------------------------------------|
E|---------------------------------||-----------------------------------------------|
        
Comments

No comments yet