Gametabs
Home
Tabs
Random

Let's Fighting Love

Average rating: 5.000

1 ratings

Composer:

Tabber:

Style:

Instrument:

Created: July 28, 2015 at 12:00 AM

            Vocals
                         Su- ba- ra- shii    chin    chin      mo- no           Kin-  
                         E   E   E   E   E   E   E   E      E  E   Q     Q.     E     
E||--------|-------|-------------------------------------|---------------------------|
B||--------|-------|-------------------------------------|---------------------------|
G||*-------|-------|-------------------------------------|---------------------------|
D||*-------|-------|--9g11--11--11--10-------------------|---------8~----L------8----|
A||--------|-------|------------------------11------11~--|--L--8---------------------|
E||--------|-------|-------------------------------------|---------------------------|


   ta- ma  no  ka- mi     a-   ru                            So- re  no  o-  to     sa- ru- 
   E   E   E   E   E  E   E    E     H         Q    Q        E   E   E   E   E  E   E   E   
----------------------------------|----------------------|---------------------------------|
----------------------------------|----------------------|---------------------------------|
----------------------------------|----------------------|---------------------------------|
--11--11--11--11--10---------6g8--|--L~------------------|--11--11--11--11--10-------------|
-------------------------11-------|----------------------|-------------------------11--11--|
----------------------------------|----------------------|---------------------------------|


     bo- bo?      Ii- e!        Nin-  ja  ga     i-  ma- su!                         
  E  E   Q     E  E   E  E      Q     E   E  E   E   E   E     H         Q    Q      
----------------------------|-------------------------------|-----------------------|
----------------------------|-------------------------------|-----------------------|
----------------------------|-------------------10------10--|--L~--------L----L\----|
---------8~-------8---8-----|--11----10--10---------13------|-----------------------|
-----9----------------------|-------------------------------|-----------------------|
----------------------------|-------------------------------|-----------------------|


     Hey   hey  let's go!      Ken- ka   su- ru            Tai- set- su  na     mo- no     pro- 
     Q     Q    Q     Q        E    Q    E   Q    Q        E    E    E   E      E   Q      E    
---------------------------|---------------------------|---------------------------------------|
---------------------------|---------------------------|---------------------------------------|
----------------8-----8----|--10---10----8---8---------|---------------------------------------|
--9g11----11---------------|---------------------------|--11---11---11--11--11g13--13~----13---|
---------------------------|---------------------------|---------------------------------------|
---------------------------|---------------------------|---------------------------------------|


   tect   my     balls          Bo- ku  ga  wa-    ru- i      so     let's  fight-   ing!       
   Q      E   E  Q     Q        E   E   E   E      E   Q      E      Q      E     E  Q    Q     
----------------------------|------------------------------------|-----------------------------|
----------------------------|------------------------------------|-----------------------------|
--10~----10s--8--8----------|------------------------------------|--10~----10s----8--8---------|
----------------------------|--11--11--11--11--11g13--13~----13--|-----------------------------|
----------------------------|------------------------------------|-----------------------------|
----------------------------|------------------------------------|-----------------------------|


     Let's   fight- ing  love!                             Let's   fight- ing  love!                        
     Q.      Q      Q    E        H         H              Q.      Q      Q    E        H.            Q     
-------------------------------|---------------------|-------------------------------|---------------------|
-------------------------------|---------------------|-------------------------------|---------------------|
-------------------------------|---------------------|-------------------------------|---------------------|
--8g11------10-----------8-----|--L~-----------------|--8g11------10-----------8-----|--L~-----------------|
-------------------11----------|---------------------|-------------------11----------|---------------------|
-------------------------------|---------------------|-------------------------------|---------------------|


   Ko- no  u-  ta     cho-    tto      ba- ka                   Wa- ke  ga  wa- ka-    ra-   nai 
   E   E   E   E  E   E   E   E     E  E   H         Q          E   E   E   E   Q      E     E   
---------------------------------|------------------------|-------------------------------------|
---------------------------------|------------------------|-------------------------------------|
---------------------------------|------------------------|-------------------------------------|
--11--11--11--10-----------------|---------8~-------------|--8g11--11--11--11--10~--------------|
---------------------11------11--|-----8------------------|---------------------------11--8g13--|
---------------------------------|------------------------|-------------------------------------|


                         Ei- go    ga     mech-    a        ku- cha            Dai- 
  H.            Q        E   Q     E  E   E    E   E     E  E   Q.      E  E   E    
---------------------|--------------------------------|----------------------------|
---------------------|--------------------------------|----------------------------|
---------------------|--------------------------------|----------------------------|
---------------------|--11--11----10------------------|---------8~------------10---|
--L~-----------------|-------------------11-------11--|-----8----------------------|
---------------------|--------------------------------|----------------------------|


   jo-bu    we do it  all the      time!                     Hey   hey  let's go!   
   E  E  E  E  E  E   E  E         H.            Q           Q     Q    Q     Q     
-----------------------------|-------------------------|---------------------------|
-----------------------------|-------------------------|---------------------------|
------------8--8--8--10--8---|--8g10~------------L\----|----------------8-----8----|
--11--8----------------------|-------------------------|--9g11----11---------------|
-----------------------------|-------------------------|---------------------------|
-----------------------------|-------------------------|---------------------------|


   Ken- ka   su- ru            Tai- set- su  na     mo- no     pro-    tect   my  balls            
   E    Q    E   Q    Q        E    E    E   E      E   Q      E       Q      E   E     Q    Q     
---------------------------|---------------------------------------|------------------------------|
---------------------------|---------------------------------------|------------------------------|
--10---10----8---8---------|---------------------------------------|--10~----10s--8-----8---------|
---------------------------|--11---11---11--11--11g13--13~----13---|------------------------------|
---------------------------|---------------------------------------|------------------------------|
---------------------------|---------------------------------------|------------------------------|


   Bo- ku  ga  wa-    ru- i      so     let's  fight-   ing!            Let's   fight- ing  love!  
   E   E   E   E      E   Q      E      Q      E     E  Q    Q          Q.      Q      Q    E      
------------------------------------|-----------------------------|-------------------------------|
------------------------------------|-----------------------------|-------------------------------|
------------------------------------|--10~----10s----8--8---------|-------------------------------|
--11--11--11--11--11g13--13~----13--|-----------------------------|--8g11------10-----------8-----|
------------------------------------|-----------------------------|-------------------11----------|
------------------------------------|-----------------------------|-------------------------------|


                           Let's   fight- ing  love!                                  
  H         H              Q.      Q      Q    E        H.            Q             3x
---------------------|-------------------------------|---------------------|--------||
---------------------|-------------------------------|---------------------|--------||
---------------------|-------------------------------|---------------------|-------*||
--L~-----------------|--8g11------10-----------8-----|--L~-----------------|-------*||
---------------------|-------------------11----------|---------------------|--------||
---------------------|-------------------------------|---------------------|--------||


Vocal2
E||--------|-------|-------|-------|-------|-------|-------|-------|-------|-------|-------|-------|-------|
B||--------|-------|-------|-------|-------|-------|-------|-------|-------|-------|-------|-------|-------|
G||*-------|-------|-------|-------|-------|-------|-------|-------|-------|-------|-------|-------|-------|
D||*-------|-------|-------|-------|-------|-------|-------|-------|-------|-------|-------|-------|-------|
A||--------|-------|-------|-------|-------|-------|-------|-------|-------|-------|-------|-------|-------|
E||--------|-------|-------|-------|-------|-------|-------|-------|-------|-------|-------|-------|-------|


                             Q.     Q     Q     E     H         H              Q.     Q     Q     E   
-------|-------|-------|---------------------------|---------------------|---------------------------|
-------|-------|-------|---------------------------|---------------------|---------------------------|
-------|-------|-------|--8g10------8--------------|---------------------|--8g10------8--------------|
-------|-------|-------|-----------------10----11--|--L~-----------------|-----------------10----11--|
-------|-------|-------|---------------------------|---------------------|---------------------------|
-------|-------|-------|---------------------------|---------------------|---------------------------|


  H.            Q                                                                                             
---------------------|-------|-------|-------|-------|-------|-------|-------|-------|-------|-------|-------|
---------------------|-------|-------|-------|-------|-------|-------|-------|-------|-------|-------|-------|
---------------------|-------|-------|-------|-------|-------|-------|-------|-------|-------|-------|-------|
--L~-----------------|-------|-------|-------|-------|-------|-------|-------|-------|-------|-------|-------|
---------------------|-------|-------|-------|-------|-------|-------|-------|-------|-------|-------|-------|
---------------------|-------|-------|-------|-------|-------|-------|-------|-------|-------|-------|-------|


                             Q.     Q     Q     E     H         H              Q.     Q     Q     E   
-------|-------|-------|---------------------------|---------------------|---------------------------|
-------|-------|-------|---------------------------|---------------------|---------------------------|
-------|-------|-------|--8g10------8--------------|---------------------|--8g10------8--------------|
-------|-------|-------|-----------------10----11--|--L~-----------------|-----------------10----11--|
-------|-------|-------|---------------------------|---------------------|---------------------------|
-------|-------|-------|---------------------------|---------------------|---------------------------|


  H.            Q             3x
---------------------|--------||
---------------------|--------||
---------------------|-------*||
--L~-----------------|-------*||
---------------------|--------||
---------------------|--------||

Rhythm

       PM PM  PM PM  PM PM  PM PM     PM PM  PM PM  PM PM PM PM     PM PM  PM PM  PM PM  PM PM  
       E  E   E  E   E  E   E  E      E  E   E  E   E  E  E  E      E  E   E  E   E  E   E  E   
E||-------------------------------|-----------------------------|------------------------------|
B||-------------------------------|-----------------------------|------------------------------|
G||*------------------------------|-----------------------8-----|------------------------------|
D||*--11--8--10--8--11--8--10--8--|--11--8--10--8--11--8-----8--|--11--8--10--8--11--8--10--8--|
A||-------------------------------|-----------------------------|------------------------------|
E||-------------------------------|-----------------------------|------------------------------|


   PM PM  PM PM  PM PM PM PM     PM PM  PM PM  PM PM  PM PM     PM PM  PM PM  PM PM PM PM  
   E  E   E  E   E  E  E  E      E  E   E  E   E  E   E  E      E  E   E  E   E  E  E  E   
-----------------------------|------------------------------|-----------------------------|
-----------------------------|------------------------------|-----------------------------|
-----------------------8-----|------------------------------|-----------------------8-----|
--11--8--10--8--11--8-----8--|--11--8--10--8--11--8--10--8--|--11--8--10--8--11--8-----8--|
-----------------------------|------------------------------|-----------------------------|
-----------------------------|------------------------------|-----------------------------|


   PM PM  PM PM  PM PM  PM PM     PM PM  PM PM  PM PM PM PM     PM PM  PM PM  PM PM  PM PM  
   E  E   E  E   E  E   E  E      E  E   E  E   E  E  E  E      E  E   E  E   E  E   E  E   
------------------------------|-----------------------------|------------------------------|
------------------------------|-----------------------------|------------------------------|
------------------------------|-----------------------8-----|------------------------------|
--11--8--10--8--11--8--10--8--|--11--8--10--8--11--8-----8--|--11--8--10--8--11--8--10--8--|
------------------------------|-----------------------------|------------------------------|
------------------------------|-----------------------------|------------------------------|


   W                   H        H           H        H           H        H           H        H         
--------------------|--------------------|--------------------|--------------------|--------------------|
--------------------|--------------------|--------------------|--------------------|--------------------|
--------------------|--------------------|--------------------|--------------------|--------------------|
--10----------------|--4--------6--------|--8--------6--------|--4--------6--------|--8--------6--------|
---8----------------|--4--------6--------|--8--------6--------|--4--------6--------|--8--------6--------|
---8----------------|--2--------4--------|--6--------4--------|--2--------4--------|--6--------4--------|


  H        H           H        H           Q.     Q    Q    E     H        E  E  E  E   
--------------------|--------------------|----------------------|-----------------------|
--------------------|--------------------|----------------------|-----------------------|
--------------------|--------------------|----------------------|-----------6--5--------|
--4--------6--------|--8--------6--------|--4------6----6----8--|--L--------------8--6--|
--4--------6--------|--8--------6--------|--4------6----6----8--|--L--------------------|
--2--------4--------|--6--------4--------|--2------4----4----6--|--L--------------------|


                                                  PM PM  PM PM  PM PM  PM PM     PM PM  PM PM  PM PM PM PM  
  Q.     Q    Q    E     H        E  E  E  E      E  E   E  E   E  E   E  E      E  E   E  E   E  E  E  E   
----------------------|-----------------------|------------------------------|-----------------------------|
----------------------|-----------------------|------------------------------|-----------------------------|
----------------------|-----------6--5--------|------------------------------|-----------------------8-----|
--4------6----6----8--|--L--------------8--6--|--11--8--10--8--11--8--10--8--|--11--8--10--8--11--8-----8--|
--4------6----6----8--|--L--------------------|------------------------------|-----------------------------|
--2------4----4----6--|--L--------------------|------------------------------|-----------------------------|


   PM PM  PM PM  PM PM  PM PM     PM PM  PM PM  PM PM PM PM     PM PM  PM PM  PM PM  PM PM  
   E  E   E  E   E  E   E  E      E  E   E  E   E  E  E  E      E  E   E  E   E  E   E  E   
------------------------------|-----------------------------|------------------------------|
------------------------------|-----------------------------|------------------------------|
------------------------------|-----------------------8-----|------------------------------|
--11--8--10--8--11--8--10--8--|--11--8--10--8--11--8-----8--|--11--8--10--8--11--8--10--8--|
------------------------------|-----------------------------|------------------------------|
------------------------------|-----------------------------|------------------------------|


   PM PM  PM PM  PM PM PM PM     PM PM  PM PM  PM PM  PM PM                                            
   E  E   E  E   E  E  E  E      E  E   E  E   E  E   E  E      W                   H        H         
-----------------------------|------------------------------|--------------------|--------------------|
-----------------------------|------------------------------|--------------------|--------------------|
-----------------------8-----|------------------------------|--------------------|--------------------|
--11--8--10--8--11--8-----8--|--11--8--10--8--11--8--10--8--|--10----------------|--4--------6--------|
-----------------------------|------------------------------|---8----------------|--4--------6--------|
-----------------------------|------------------------------|---8----------------|--2--------4--------|


  H        H           H        H           H        H           H        H           H        H         
--------------------|--------------------|--------------------|--------------------|--------------------|
--------------------|--------------------|--------------------|--------------------|--------------------|
--------------------|--------------------|--------------------|--------------------|--------------------|
--8--------6--------|--4--------6--------|--8--------6--------|--4--------6--------|--8--------6--------|
--8--------6--------|--4--------6--------|--8--------6--------|--4--------6--------|--8--------6--------|
--6--------4--------|--2--------4--------|--6--------4--------|--2--------4--------|--6--------4--------|


  Q.     Q    Q    E     H        E  E  E  E     Q.     Q    Q    E     H        E  E  E  E       Q      3x
----------------------|-----------------------|----------------------|-----------------------|-----------||
----------------------|-----------------------|----------------------|-----------------------|-----------||
----------------------|-----------6--5--------|----------------------|-----------6--5--------|----------*||
--4------6----6----8--|--L--------------8--6--|--4------6----6----8--|--L--------------8--6--|--6g8~----*||
--4------6----6----8--|--L--------------------|--4------6----6----8--|--L--------------------|-----------||
--2------4----4----6--|--L--------------------|--2------4----4----6--|--L--------------------|-----------||


Synth

      Q    Q    Q     Q        H         H            W                                 
E||------------------------|----------------------|--------------------|-------|-------|
B||------------------------|----------------------|--------------------|-------|-------|
G||*-----------------------|------------13--------|--10----------------|-------|-------|
D||*------------8----10----|--11------------------|--------------------|-------|-------|
A||------------------------|----------------------|--------------------|-------|-------|
E||------------------------|----------------------|--------------------|-------|-------|


  Q    E   E   Q     Q        W                    W                                 
--------------------------|--------------------|--------------------|-------|-------|
--------------------------|--------------------|--------------------|-------|-------|
--------------------13----|--15----------------|--13----------------|-------|-------|
-------8--10--11----------|--------------------|--------------------|-------|-------|
--------------------------|--------------------|--------------------|-------|-------|
--------------------------|--------------------|--------------------|-------|-------|


   E  E   E  E   E  E  E  E      E  E   E   E   E  E  E  E      E  E   E  E   E  E  E  E   
-----------------------------|------------------------------|-----------------------------|
-----------------------------|------------------------------|-----------------------------|
-----------------------8-----|-------------10---------8-----|-----------------------8-----|
--11--8--10--8--11--8-----8--|--11--8--10------11--8-----8--|--11--8--10--8--11--8-----8--|
-----------------------------|------------------------------|-----------------------------|
-----------------------------|------------------------------|-----------------------------|


   E  E  E  E   E  E   E   E      E  E   E  E   E  E  E  E      E  E   E   E   E  E  E  E   
------------------------------|-----------------------------|------------------------------|
------------------------------|-----------------------------|------------------------------|
--10-----8----------------10--|-----------------------8-----|-------------10---------8-----|
------8-----8--11--8--11------|--11--8--10--8--11--8-----8--|--11--8--10------11--8-----8--|
------------------------------|-----------------------------|------------------------------|
------------------------------|-----------------------------|------------------------------|


   E  E   E  E   E  E  E  E      E  E  E  E   E  E   E  E      E  E   E  E   E  E  E  E   
-----------------------------|-----------------------------|-----------------------------|
-----------------------------|-----------------------------|-----------------------------|
-----------------------8-----|---------8------------10-----|-----------------------8-----|
--11--8--10--8--11--8-----8--|--11--8-----8--11--8------8--|--11--8--10--8--11--8-----8--|
-----------------------------|-----------------------------|-----------------------------|
-----------------------------|-----------------------------|-----------------------------|


   E  E  E  E   E  E   E  E      W                                   Q    E   E   Q     Q     
-----------------------------|--------------------|-------|-------|--------------------------|
-----------------------------|--------------------|-------|-------|--------------------------|
---------8------------10-----|--10----------------|-------|-------|--------------------13----|
--11--8-----8--11--8------8--|--------------------|-------|-------|-------8--10--11----------|
-----------------------------|--------------------|-------|-------|--------------------------|
-----------------------------|--------------------|-------|-------|--------------------------|


   W                    W                                    E  E   E  E   E  E  E  E   
--------------------|--------------------|-------|-------|-----------------------------|
--------------------|--------------------|-------|-------|-----------------------------|
--15----------------|--13----------------|-------|-------|-----------------------8-----|
--------------------|--------------------|-------|-------|--11--8--10--8--11--8-----8--|
--------------------|--------------------|-------|-------|-----------------------------|
--------------------|--------------------|-------|-------|-----------------------------|


   E  E   E   E   E  E  E  E      E  E   E  E   E  E  E  E      E  E  E  E   E  E   E   E   
------------------------------|-----------------------------|------------------------------|
------------------------------|-----------------------------|------------------------------|
-------------10---------8-----|-----------------------8-----|--10-----8----------------10--|
--11--8--10------11--8-----8--|--11--8--10--8--11--8-----8--|------8-----8--11--8--11------|
------------------------------|-----------------------------|------------------------------|
------------------------------|-----------------------------|------------------------------|


   E  E   E  E   E  E  E  E      E  E   E   E   E  E  E  E      E  E   E  E   E  E  E  E   
-----------------------------|------------------------------|-----------------------------|
-----------------------------|------------------------------|-----------------------------|
-----------------------8-----|-------------10---------8-----|-----------------------8-----|
--11--8--10--8--11--8-----8--|--11--8--10------11--8-----8--|--11--8--10--8--11--8-----8--|
-----------------------------|------------------------------|-----------------------------|
-----------------------------|------------------------------|-----------------------------|


   E  E  E  E   E  E   E  E      E  E   E  E   E  E  E  E      E  E  E  E   E  E   E  E      Q     3x
-----------------------------|-----------------------------|-----------------------------|---------||
-----------------------------|-----------------------------|-----------------------------|---------||
---------8------------10-----|-----------------------8-----|---------8------------10-----|--------*||
--11--8-----8--11--8------8--|--11--8--10--8--11--8-----8--|--11--8-----8--11--8------8--|--11----*||
-----------------------------|-----------------------------|-----------------------------|---------||
-----------------------------|-----------------------------|-----------------------------|---------||

Bass

      E  E  E  E  E  E  E  E     E  E  E  E  E  E  E  E     E  E  E  E  E  E  E  E   
G||---------------------------|--------------------------|--------------------------|
D||*-----8-----8-----8-----8--|-----8-----8-----8-----8--|-----8-----8-----8-----8--|
A||*--------------------------|--------------------------|--------------------------|
E||---6-----6-----6-----6-----|--6-----6-----6-----6-----|--6-----6-----6-----6-----|


  E  E  E  E  E  E  E  E     E  E  E  E  E  E  E  E     E  E  E  E  E  E  E  E     E  E  E  E  E  E  E  E   
--------------------------|-----3-----3-----3-----3--|-----6-----6-----6-----8--|--------------------------|
--------------------------|--------------------------|--4-----4-----4-----6-----|-----8-----8-----8-----8--|
-----4-----4-----4-----6--|--1-----1-----1-----1-----|--------------------------|--------------------------|
--2-----2-----2-----4-----|--------------------------|--------------------------|--6-----6-----6-----6-----|


  E  E  E  E  E  E  E  E     E  E  E  E  E  E  E  E     E  E  E  E  E  E  E  E     E  E  E  E  E  E  E  E   
--------------------------|--------------------------|--------------------------|--------------------------|
--------------------------|--------------------------|-----3-----3-----3-----3--|-----4-----4-----6-----6--|
-----4-----4-----4-----6--|-----4-----4-----4-----4--|--------------------------|--------------------------|
--2-----2-----2-----4-----|--2-----2-----2-----2-----|--1-----1-----1-----1-----|--2-----2-----4-----4-----|


  E  E  E  E  E  E  E  E     E  E  E  E  E  E  E  E     E  E  E  E  E  E  E  E     E  E  E  E  E  E  E  E   
--------------------------|--------------------------|--------------------------|--------------------------|
-----8-----8-----6-----6--|-----4-----4-----6-----6--|-----8-----8-----6-----6--|-----4-----4-----6-----6--|
--------------------------|--------------------------|--------------------------|--------------------------|
--6-----6-----4-----4-----|--2-----2-----4-----4-----|--6-----6-----4-----4-----|--2-----2-----4-----4-----|


  E  E  E  E  E  E  E  E     Q.     E  E  E  E  E     Q.     E  E  E  Q       Q.     E  E  E  E  E   
--------------------------|------------------------|-----------------------|------------------------|
-----8-----8-----6-----6--|------------------------|---------8-----8--6----|------------------------|
--------------------------|------------------------|-----------------------|------------------------|
--6-----6-----4-----4-----|--2------4-----4-----6--|--L---------6----------|--2------4-----4-----6--|


  Q.     E  E  E  Q       E  E  E  E  E  E  E  E     E  E  E  E  E  E  E  E     E  E  E  E  E  E  E  E   
-----------------------|--------------------------|--------------------------|-----3-----3-----3-----3--|
---------8-----8--6----|-----8-----8-----8-----8--|--------------------------|--------------------------|
-----------------------|--------------------------|-----4-----4-----4-----6--|--1-----1-----1-----1-----|
--L---------6----------|--6-----6-----6-----6-----|--2-----2-----2-----4-----|--------------------------|


  E  E  E  E  E  E  E  E     E  E  E  E  E  E  E  E     E  E  E  E  E  E  E  E     E  E  E  E  E  E  E  E   
-----6-----6-----6-----8--|--------------------------|--------------------------|--------------------------|
--4-----4-----4-----6-----|-----8-----8-----8-----8--|--------------------------|--------------------------|
--------------------------|--------------------------|-----4-----4-----4-----6--|-----4-----4-----4-----4--|
--------------------------|--6-----6-----6-----6-----|--2-----2-----2-----4-----|--2-----2-----2-----2-----|


  E  E  E  E  E  E  E  E     E  E  E  E  E  E  E  E     E  E  E  E  E  E  E  E     E  E  E  E  E  E  E  E   
--------------------------|--------------------------|--------------------------|--------------------------|
-----3-----3-----3-----3--|-----4-----4-----6-----6--|-----8-----8-----6-----6--|-----4-----4-----6-----6--|
--------------------------|--------------------------|--------------------------|--------------------------|
--1-----1-----1-----1-----|--2-----2-----4-----4-----|--6-----6-----4-----4-----|--2-----2-----4-----4-----|


  E  E  E  E  E  E  E  E     E  E  E  E  E  E  E  E     E  E  E  E  E  E  E  E     Q.     E  E  E  E  E   
--------------------------|--------------------------|--------------------------|------------------------|
-----8-----8-----6-----6--|-----4-----4-----6-----6--|-----8-----8-----6-----6--|------------------------|
--------------------------|--------------------------|--------------------------|------------------------|
--6-----6-----4-----4-----|--2-----2-----4-----4-----|--6-----6-----4-----4-----|--2------4-----4-----6--|


  Q.     E  E  E  Q       Q.     E  E  E  E  E     Q.     E  E  E  Q             3x
-----------------------|------------------------|-----------------------|--------||
---------8-----8--6----|------------------------|---------8-----8--6----|-------*||
-----------------------|------------------------|-----------------------|-------*||
--L---------6----------|--2------4-----4-----6--|--L---------6----------|--------||




Duration Legend
---------------
W - whole
H - half
Q - quarter
E - 8th
S - 16th
. - note dotted


Tablature Legend
----------------
L - tied note
g - grace note
s - legato slide
/ -  slide into from below or out of upwards
\ -  slide into from above or out of downwards
~ - vibrato

        
Comments

No comments yet