Gametabs
Home
Tabs
Random

Underground Castle

Average rating: No ratings

Composer:

Tabber:

Style:

Instrument:

Created: May 18, 2011 at 12:00 AM

            Underground Castle
Soul Blazer
Composer: Yukihide Takekawa
Tabbed by Bacardibreezer
5/17/11

Guitar 1, Melody

e|--17~-----15-13-15-13-12-13-12-------------|--17~-----15-13-15-13-12-13-12-------------|
B|-------------------------------15-13-------|-------------------------------15-13-15~---|
G|-------------------------------------14~---|-------------------------------------------|
D|-------------------------------------------|-------------------------------------------|
A|-------------------------------------------|-------------------------------------------|
E|-------------------------------------------|-------------------------------------------| x2

e|--13--13--13--10~-----10--13--13--10~----|
B|-----------------------------------------|
G|-----------------------------------------|
D|-----------------------------------------|
A|-----------------------------------------|
E|-----------------------------------------| x2

e|--17~-----15-13-15-13-12-13-12-------------|--17~-----15-13-15-13-12-13-12-------------|
B|-------------------------------15-13-------|-------------------------------15-13-15~---|
G|-------------------------------------14~---|-------------------------------------------|
D|-------------------------------------------|-------------------------------------------|
A|-------------------------------------------|-------------------------------------------|
E|-------------------------------------------|-------------------------------------------| 

e|------5---5-----------------------------|
B|----6---6---6------6-------6------------|
G|--7--------------7-------7---7--7-7-7---|
D|----------------------------------------|
A|----------------------------------------|
E|----------------------------------------| x2


Guitar 2, Rhythm - Repeat over and over

e|--10-10-------10-10-------10-10----10----10------|
B|--------10-10-------10-10-------------------10---|
G|-------------------------------------------------|
D|-------------------------------------------------|
A|-------------------------------------------------|
E|-------------------------------------------------|

Bass

C |----------------|----------------|----------------|----------------|
G |----7-------7---|----7-----7-----|7-------5-------|7-----5---7-----|
D |----------------|----------------|----------------|----------------|
A |5-------5-------|5-----5-----5---|----5-------5---|----5-----------|
E |----------------|----------------|----------------|----------------|
B |----------------|----------------|----------------|----------------|

C |----------------|----------5-----|----------------|----------------|
G |----7-----5-----|7-----5-------7-|----7-------5---|7-----5---7-----|
D |----------------|----------------|----------------|----------------|
A |5-------5-------|----5-------5---|5-------5-------|----5-----------|
E |----------------|----------------|----------------|----------------|
B |----------------|----------------|----------------|----------------|

Repeat throughout
        
Comments

No comments yet