Gametabs
Home
Tabs
Random

The World of Soul Blazer

Average rating: No ratings

Composer:

Tabber:

Style:

Instrument:

Created: January 24, 2011 at 12:00 AM

                    Soul Blazer - World of Soul Blazer BASS TAB
               Composed by Yukihide Takekawa 


          Tabbed by auriplane ([email protected])


I tabbed this for five-string bass, but I also decided to make a 
version for four strings in drop-D tuning, since the lowest note
is a D.  Enjoy! :-)



          FIVE-STRING VERSION (Standard tuning)

G |------------|------------|------------|------------|
D |------------|------7--5--|------------|------------|
A |8--5-----8--|7--7--------|8--5-----8--|7--------7--|
E |------7-----|------------|------7-----|---7--5-----|
B |------------|------------|------------|------------|


G |------------|------------|------------|------------|
D |------------|------7--5--|------------|---------7--|
A |8--5-----8--|7--7--------|8--5-----8--|7--7--------|
E |------7-----|------------|------7-----|------5-----|
B |------------|------------|------------|------------|


G |------------|------------|------------|------------|
D |------------|------------|------------|------------|
A |------------|------------|5----57-----|---7--------|
E |------------|------5-----|------------|------5-----|
B |6----68-----|5----5------|------------|5-----------|


G |------------|------------|
D |------------|---------5--|
A |------------|5--7--8-----|
E |---------3--|------------|
B |3--5--6-----|------------|


G |----457--5--|4-----------|----457--5--|4-54--------|
D |7-77--------|---5--7-----|7-77--------|-----57-----|
A |------------|------------|------------|------------| x2
E |------------|------------|------------|------------|
B |------------|------------|------------|------------|


G |------------|------------|------------|------------|
D |------------|------------|------------|------------|
A |------------|------------|------------|------------|
E |------3-----|3----35--3--|------3----3|------5-----|
B |6----6------|------------|6----6------|5--5--------|










              DROP-D VERSION (Four strings)

G |------------|------2-----|------------|------------|
D |3--------3--|2--2-----5--|3--------3--|2--------2--|
A |---5--2-----|------------|---5--2-----|---2--0-----|
D |------------|------------|------------|------------|


G |------------|------2-----|------------|---------2--|
D |3--------3--|2--2-----5--|3--------3--|2--2--------|
A |---5--2-----|------------|---5--2-----|------0-----|
D |------------|------------|------------|------------|


G |------------|------------|------------|------------|
D |------------|------------|------2-----|---2--------|
A |------------|------0-----|5----5------|------0-----|
D |3----35-----|2----2------|------------|2-----------|


G |------------|------------|
D |------------|---------5--|
A |------------|5--7--8-----|
D |0--2--3--5--|------------|


G |----457--5--|4-----------|----457--5--|4-54--------|
D |7-77--------|---5--7-----|7-77--------|-----57-----|
A |------------|------------|------------|------------| x2
D |------------|------------|------------|------------|


G |------------|------------|------------|------------|
D |------------|------------|------------|------------|
A |------------|------------|------------|------0-----|
D |3----35-----|5----57--5--|3----35----5|2--2--------|


        
Comments

No comments yet