Gametabs
Home
Tabs
Random

Light Shrine

Average rating: No ratings

Tabber:

Instrument:

Created: August 16, 2010 at 12:00 AM

            Song: Light Shrine (or Rotting Temple)
Game: Soul Blazer
Platform: Super Nintendo
Composer: Yukihide Takekawa
Tabbed By: BacardiBreezer
8/16/2010 Updated 9/10/11


e|---------------------------------------------|
B|------10-------------------------------------|
G|--10------12~----12-10-9-10-8-7~--------7~---|
D|-------------------------------------10------|
A|---------------------------------------------|
E|---------------------------------------------|  x2

e|-------------------------------------|
B|--10---------------------------------|
G|------12--10--9--10--12--10--9--7~---|
D|-------------------------------------|
A|-------------------------------------|
E|-------------------------------------|  x2

e|-------------------|
B|-------------------|
G|-------------------|
D|-------------------|
A|---8~---5-----5----|
E|-----------8-------|  x2

e|---------------------------------|
B|--15-15-15~----------------15~---|
G|---------------17--14--17--------|
D|---------------------------------|
A|---------------------------------|
E|---------------------------------|

e|---------------------------------|
B|--15-15-15~----------------------|
G|---------------17--14--17--14~---|
D|---------------------------------|
A|---------------------------------|
E|---------------------------------|

e|---------------------------------|
B|--15-15-15~----------------15~---|
G|---------------17--14--17--------|
D|---------------------------------|
A|---------------------------------|
E|---------------------------------|

e|---------------------------------|
B|--15-15-15~------------17--15~---|
G|---------------17--14------------|
D|---------------------------------|
A|---------------------------------|
E|---------------------------------| 
        
Comments

No comments yet