Gametabs
Home
Tabs
Random

Title Screen

Average rating: No ratings

Composer:

Tabber:

Style:

Instrument:

Created: January 17, 2010 at 12:00 AM

            Sonic The Hedgehog  - Title Screen (Mega Drive)
Simple solo guitar arrangement
Tabbed by LTRosbon Jan 2010

Standard tuning

|-0-0---0-2-------0-0-----------
|-2-2---2-3---3---2-2-2-2-0---3-
|-------------4-------2-2-0---4-
|-------------------------------
|-0-0-0-0---------0-0-0-0-------
|---------3---------------3-----
          * thumb         * thumb

|-----5-----4/5---
|---5-5-----4/5---
|-6-6---6---5/6---
|-7-----7---------
|-0---0---------0-
|-----------4/5---
            * thumb

        
Comments

No comments yet