Gametabs
Home
Tabs
Random

Scrap Brain Zone

Average rating: No ratings

Composer:

Tabber:

Style:

Instrument:

Created: January 18, 2010 at 12:00 AM

                         Sonic the Hedgehog 1 - Scrap Brain Zone BASS TAB
                        Composed by Masato Nakamura

                  Tabbed by Auriplane ([email protected])


Four-string bass.  There's two picking patterns.  One alternates
strings every two notes, and one is two high notes, six low notes.
IMO the first picking pattern is easier to do evenly, but if it
helps, you can play the first part like the second pattern if you
move the 5th and 6th notes in each pattern up a string.  Whatever's 
easier.

BTW, it's an easy pattern.  It's only hard because it's fast, so if
you're having trouble, *practice it slower*.


        Intro 


G |--------------------------------|--------------------------------|
D |--------------5---------5-------|5-------5-------5-------5-------|
A |----------5-7-------------------|--------------------------------|
E |5-7---8-------------3-------3---|----3-------3-------3-------3---|


        Part A         -PLAY 2X-


G |--------------------------------|--------------------------------|
D |7-7-----5-5-----7-7-----5-5-----|7-7-----5-5-----7-7-----5-5-----|
A |----7-7-----7-7-----7-7-----7-7-|----7-7-----7-7-----7-7-----7-7-|
E |--------------------------------|--------------------------------|


G |--------------------------------|--------------------------------|
D |5-5-----3-3-----5-5-----3-3-----|5-5-----3-3-----5-5-----3-3-----|
A |----5-5-----5-5-----5-5-----5-5-|----5-5-----5-5-----5-5-----5-5-|
E |--------------------------------|--------------------------------|


G |--------------------------------|--------------------------------|
D |3-3-----1-1-----3-3-----1-1-----|3-3-----1-1-----3-3-----1-1-----|
A |----3-3-----3-3-----3-3-----3-3-|----3-3-----3-3-----3-3-----3-3-|
E |--------------------------------|--------------------------------|


G |--------------------------------|--------------------------------|
D |7-7-----5-5-----7-7-----5-5-----|7-7-----5-5-----7-7-----5-5-----|
A |----7-7-----7-7-----7-7-----7-7-|----7-7-----7-7-----7-7-----7-7-|
E |--------------------------------|--------------------------------|


        Part B         -PLAY 4X-


G |--------------------------------|--------------------------------|
D |7-7-6-6-5-5-7-7-6-6-5-5-5-5-----|7-7-6-6-5-5-7-7-6-6-5-5---------|
A |--------------------------------|--------------------------------|
E |--------------------------------|--------------------------------|


G |--------------------------------|--------------------------------|
D |--------------------------------|4-4-------------4-4-------------|
A |3-3-------------3-3-------------|----4-4-6-6-4-4-----4-4-6-6-4-4-|
E |----3-3-5-5-3-3-----3-3-5-5-3-3-|--------------------------------|


G |--------------------------------|--------------------------------|
D |3-3-------------3-3-------------|5-5-------------5-5-------------|
A |----3-3-5-5-3-3-----3-3-5-5-3-3-|----5-5-7-7-5-5-----5-5-7-7-5-5-|
E |--------------------------------|--------------------------------|



        
Comments

No comments yet