Gametabs
Home
Tabs
Random

Wave Ocean ~The Inlet~

Average rating: 5.000

1 ratings

Composer:

Tabber:

Style:

Created: January 18, 2008 at 12:00 AM

            Song: Wave Ocean ~The Inlet~
Artist: Mariko Nanba & Tomoya Ohtani
Album: Sonic the Hedgehog (2006)


intro: 
guitar1:
e|----------------------------------------------------------------------|
B|----------------------------------------------------------------------|
G|---------88-88--1010-1010---66-66---55-55---1010-1010---66-66---66-66-|x2
D|-66-66---88-88--1010-1010---66-66---55-55---1010-1010---66-66---66-66-|
A|-66-66---66-66---8-8--8-8---44-44---33-33----8-8--8-8---44-44---44-44-|
E|-44-44----------------------------------------------------------------|

guitar2:
(If you're alone, you can just replace this part with upstrokes of the 
guitar1 part.  It's not correct exactly but it's the right idea).
|-----------------------------------------------------------------------|
|-----------------------------------------------------------------------|
|-----------8--8-----10--10-----6--6---5-5-------10--10----6--6----6--6-|
|-----------------------------------------------------------------------|
|---6--6----6--6------8---8-----4--4---3-3--------8---8----4--4----4--4-|
|-----------------------------------------------------------------------|


verse:

|-------------------------------------------|
|-------9-8-9-8-6---6------------6----------|
|---5-8-----------8-------5-8--------5-5-6--|
|-6-------------------6-8----------6--------|
|-------------------------------------------|
|-------------------------------------------|

|----------------------6-8-11--13---8-8-6--|
|------9-8-9-8-6---6-9------------9--------|
|----5-----------8-------------------------|
|-6----------------------------------------|
|------------------------------------------|
|------------------------------------------|



|----------------------------------|
|----------------------------------|
|----------------------------6--5--|x4 (ok it's not exactly played 
|-6--6-6--5-6-6-6--5-6-6-6---6--5--|    four times, use your ear) :)
|-6--6-6--5-6-6-6--5-6-6-6---4--3--|
|-4--4-4--3-4-4-4--3-4-4-4---------|


verse 2:

|-------------6------------------11--9-8-9-|
|-9-8-9---8-9---9----9-8-9---8-9-----------|
|-------8------------------8---------------|
|------------------------------------------|
|------------------------------------------|
|------------------------------------------|

|-------------6------8-6-8-6-8-9-9-8-------|
|-9-8-9---8-9---9--------------------9-----|
|-------8----------------------------------|
|------------------------------------------|
|------------------------------------------|
|------------------------------------------|



|-------------|    |----
|-------------|    |----
|-3---5--6----|x3  |-8--
|-3---5--6----|    |-8--
|-1---3--4----|    |-6--
|-------------|    |----



1:40 in:

|-----------------------------------------------|
|------9-7-9--------7-9--------9-7-9--------7-9-|
|-5-5----------5-8--------5-5----------5-8------|
|---6--------6-----6--------6--------6-----6----|
|-----------------------------------------------|
|-----------------------------------------------|



|-------------------------------------------|
|-16----14---------------------------19b21--|
|----16-------13----------------------------|
|----------16----14-16----------------------|
|----------------------14-16----------------|
|----------------------------14-16----------|

|----------------------------------12-14-17-17b18----------------|
|----------------------------14-16------------------19-----19b21-|
|----------------------13-16-------------------------------------|x2
|-------------13-14-16-------------------------------------------|
|-------14-16----------------------------------------------------|
|-12-16----------------------------------------------------------|


xby : bend x to sound like y


email: [email protected]

        
Comments

@SonicaL (January 22, 2008 at 7:23 PM)

whew,those tabs are great, i've been waitng for someone to tab this for ages ! great job you did there....i've got all memorized by now, but how the hell are you supposed to play that last part so fast ??? help would be appreciated^^


@Black Infernape (February 27, 2008 at 1:51 PM)

I never actually played this Sonic game before. I wish they made it for the Gamecube and PS2 too. At first, I got lost but after hearing the MP3, I understood it completely. I managed to play this song in two days. Super awesome song! Go Sonic and the rock bands that play his background songs!


@Verbal (March 25, 2008 at 5:05 PM)

Well done mate, defiantly love this tab, only complaint is that my guitar doesn't have 88 frets lol, no, i got what you meant. Great tab bro.


@Blue Blur (July 05, 2008 at 7:12 PM)

Awesome, =D. I can finally fix my cover on Youtube, XD. Thanks man! I'll be sure to give you credit, <3

-Blur


@jackielegs (August 22, 2011 at 4:50 AM)

great blog.. thanks for sharing the information.... excellent blog information presented.. thank you...

freestylecustoms.net