Gametabs
Home
Tabs
Random

Marble Garden Zone Act 2

Average rating: 2.000

1 ratings

Composer:

Tabber:

Style:

Instrument:

Created: March 14, 2008 at 12:00 AM

            Marble Garden Zone Act 2
Transcribed by Strummer

e----------------------------------------
B-------------------7-7-5----------------
G----6--6--------------------6----4------
D----------------------------------------
A----------------------------------------
E----------------------------------------

e----------------------------------------
B-------------------7-7-5-5-4------------
G----6-6-4-6------------------6-4-6--6-6-
D----------------------------------------
A----------------------------------------
E----------------------------------------

e----------------------------------------
B-------------------7-7-7-5-5-4----------
G----6-6-4-6--------------------6-4-6----
D----------------------------------------
A----------------------------------------
E----------------------------------------

e----9--7--------------7----------------- x2
B----------9--7-------------5------------
G----------------------------------------
D----------------------------------------
A----------------------------------------
E----------------------------------------

e----9--7--------------7-----------------
B----------9--7-------------5----4-5-----
G--------------------------------------6-
D----------------------------------------
A----------------------------------------
E----------------------------------------

e---------------------------7------------------------
B-------------------7------------7-7-9-7---7---------
G----6--8-9----9-------6-----------------9------7----
D--------------------------------------------------9-
A----------------------------------------------------
E----------------------------------------------------

e---------------------------7------------------------
B------------------7-------------7-7-9-7-5------5----
G----6--8-9--8-8-9---9--6------------------7-------5-
D----------------------------------------------------
A----------------------------------------------------
E----------------------------------------------------

        
Comments

No comments yet