Gametabs
Home
Tabs
Random

Mystic Cave

Average rating: No ratings

Composer:

Tabber:

Style:

Instrument:

Created: October 03, 2007 at 12:00 AM

                                                 MYSTIC
            um... wow this is pretty high of a tune, not to mention pretty hard
            i was able to get this part done*... its fun to do ^^

  Q=106
 4/4
  Gtr I
  W          W           H     H       H     H
|----------|----------|-17----19----|-20----------|
|----------|----------|-------------|-------21----|
|----------|----------|-------------|-------------|
|----------|----------|-------------|-------------|
|----------|----------|-------------|-------------|
|----------|----------|-------------|-------------|

   W           +W            H     H       H     H
|-----------|-------------|-------20----|-19----18----|
|-22--------|-(22)--------|-22----------|-------------|
|-----------|-------------|-------------|-------------|
|-----------|-------------|-------------|-------------|
|-----------|-------------|-------------|-------------|
|-----------|-------------|-------------|-------------|

                            *Gtr II
   W           +W            E E S S S S S S E S E.   E E S E S +H
|-17--------|-(17)--------|-10-9-8-9-8-7-6-6-5-4-3--|-1-1-0-1-5-(5)----|
|-----------|-------------|-------------------------|------------------|
|-----------|-------------|-------------------------|------------------|
|-----------|-------------|-------------------------|------------------|
|-----------|-------------|-------------------------|------------------|
|-----------|-------------|-------------------------|------------------|

   E E S S S S S S E S E.   E E S E  S  +H        E E S S S S S S E S E.
|-10-9-8-9-8-7-6-6-5-4-3--|-1-1-0-1------------|-10-9-8-9-8-7-6-6-5-4-3--|
|-------------------------|---------10-(10)----|-------------------------|
|-------------------------|--------------------|-------------------------|
|-------------------------|--------------------|-------------------------|
|-------------------------|--------------------|-------------------------|
|-------------------------|--------------------|-------------------------|

  E E S E S +H        E E S S S S S S E S E.   E E S E  S  +H
|-1-1-0-1-5-(5)----|-10-9-8-9-8-7-6-6-5-4-3--|-1-1-0-1------------|
|------------------|-------------------------|---------10-(10)----|
|------------------|-------------------------|--------------------|
|------------------|-------------------------|--------------------|
|------------------|-------------------------|--------------------|
|------------------|-------------------------|--------------------|

   Q    +S   E.   +S   E.    +S   E.
|-17---(17)-16---(16)-15----(15)-14---|
|-------------------------------------|
|-------------------------------------|
|-------------------------------------|
|-------------------------------------|
|-------------------------------------|

   Q    +S   E.   +S   E.    +Q
|-15---(15)-16---(16)-17----(17)----|
|-----------------------------------|
|-----------------------------------|
|-----------------------------------|
|-----------------------------------|
|-----------------------------------|

  Gtr I
   H     H
|-17----19----|
|-------------|
|-------------|
|-------------|
|-------------|
|-------------|

   H     H       W           +W            H     H
|-20----------|-----------|-------------|-------20----|
|-------21----|-22--------|-(22)--------|-22----------|
|-------------|-----------|-------------|-------------|
|-------------|-----------|-------------|-------------|
|-------------|-----------|-------------|-------------|
|-------------|-----------|-------------|-------------|

                                          Gtr II
   H     H       W           +W            E E S S S S S S E S E.
|-19----18----|-17--------|-(17)--------|-10-9-8-9-8-7-6-6-5-4-3---|
|-------------|-----------|-------------|--------------------------|
|-------------|-----------|-------------|--------------------------|
|-------------|-----------|-------------|--------------------------|
|-------------|-----------|-------------|--------------------------|
|-------------|-----------|-------------|--------------------------|

  E E S E S +H        E E S S S S S S E S E.   E E S E  S  +H
|-1-1-0-1-5-(5)----|-10-9-8-9-8-7-6-6-5-4-3--|-1-1-0-1------------|
|------------------|-------------------------|---------10-(10)----|
|------------------|-------------------------|--------------------|
|------------------|-------------------------|--------------------|
|------------------|-------------------------|--------------------|
|------------------|-------------------------|--------------------|

   E E S S S S S S E S E.   E E S E S +H        E E S S S S S S E S E.
|-10-9-8-9-8-7-6-6-5-4-3--|-1-1-0-1-5-(5)----|-10-9-8-9-8-7-6-6-5-4-3--|
|-------------------------|------------------|-------------------------|
|-------------------------|------------------|-------------------------|
|-------------------------|------------------|-------------------------|
|-------------------------|------------------|-------------------------|
|-------------------------|------------------|-------------------------|

                                      Gtr I
  E E S E  S  +H       W               Q    +S   E.   +S   E.    +Q
|-1-1-0-1------------|--------------|-15---(15)-16---(16)-17----(17)----|
|---------10-(10)----|--------------|-----------------------------------|
|--------------------|--------------|-----------------------------------|
|--------------------|--------------|-----------------------------------|
|--------------------|--------------|-----------------------------------|
|--------------------|--------------|-----------------------------------|

  Q    +S   E.   +S   E.    +S   E.
|-17---(17)-16---(16)-15----(15)-14---
|-------------------------------------|
|-------------------------------------|
|-------------------------------------|
|-------------------------------------|
|-------------------------------------|

   Q    +S   E.   +S   E.    +Q
|-15---(15)-16---(16)-17----(17)---|
|----------------------------------|
|----------------------------------|
|----------------------------------|
|----------------------------------|
|----------------------------------|

   H     H       H     H       W           +W
|-17----19----|-20----------|-----------|---------|
|-------------|-------21----|-22--------|-(22)----|
|-------------|-------------|-----------|---------|
|-------------|-------------|-----------|---------|
|-------------|-------------|-----------|---------|
|-------------|-------------|-----------|---------|

   H     H       H     H       W
|-------20----|-19----18----|-17----*|
|-22----------|-------------|-------*|
|-------------|-------------|-------*|
|-------------|-------------|-------*|
|-------------|-------------|-------*|
|-------------|-------------|-------*|

        
Comments

@Devil_Dante (August 23, 2007 at 8:19 PM)

It looks like good tab, but I can't do all of it because my guitar only has 20 frets... :(