Gametabs
Home
Tabs
Random

Raisin' Me Up

Average rating: No ratings

Composer:

Tabber:

Style:

Instrument:

Created: August 14, 2013 at 12:00 AM

            Raisin' Me Up
Sonic Rush
Composed by Hideki Naganuma
Tabbed by hslesperance
8/15/13

Guitars - Standard Tuning
Bass - Drop D Tuning (DADG)




Vocals

   W                     W                      W                     W
|---------------------|----------------------|---------------------|-----------------------|
|---------------------|----------------------|---------------------|-----------------------|
|---------------------|----------------------|---------------------|-----------------------|
|---------------------|----------------------|---------------------|-----------------------|
|---------------------|----------------------|---------------------|-----------------------|
|---------------------|----------------------|---------------------|-----------------------|


   Q    H         E  E    H         E E  E  E    Q    H         E  E    H         E E  E  E
|--8--------------8----|----------------------|--8--------------8----|----------------------|
|-------------------10-|-------------------10-|-------------------10-|-------------------10-|
|----------------------|--------------7--9----|----------------------|--------------7--9----|
|----------------------|----------------------|----------------------|----------------------|
|----------------------|----------------------|----------------------|----------------------|
|----------------------|----------------------|----------------------|----------------------|


   Q    H         E  E    H         E E  E  E    Q    H         E  E    H         E E  E  E
|--8--------------8----|----------------------|--8--------------8----|----------------------|
|-------------------10-|-------------------10-|-------------------10-|--------------5--6--5-|
|----------------------|--------------7--9----|----------------------|----------------------|
|----------------------|----------------------|----------------------|----------------------|
|----------------------|----------------------|----------------------|----------------------|
|----------------------|----------------------|----------------------|----------------------|


  E   Q       Q       E   E   E     q       Q       E   E   E   E
|---------------------------------|---------------------------------|
|-6s==8---------------8---8---8---|-6-------------------5---6---5---|
|---------------------------------|---------------------------------|
|---------------------------------|---------------------------------|
|---------------------------------|---------------------------------|
|---------------------------------|---------------------------------|


  E   Q       Q       E   E   E     q       Q       E   E   E   E
|---------------------------------|------------------------------------|
|-6s==8---------------8---8---8---|-6-------------------5---6---5------|
|---------------------------------|------------------------------------|
|---------------------------------|------------------------------------|
|---------------------------------|------------------------------------|
|---------------------------------|------------------------------------|


  E   Q       Q       E   E   E     q       Q       E   E   E   E
|---------------------------------|---------------------------------|
|-6s==8---------------8---8---8---|-6-------------------5---6---5---|
|---------------------------------|---------------------------------|
|---------------------------------|---------------------------------|
|---------------------------------|---------------------------------|
|---------------------------------|---------------------------------|


  E   Q       Q       E   E   E     q       Q       E   S E   S  E
|---------------------------------|-------------------------------------|
|-6s==8---------------8---8---8---|-6---------------------------10------|
|---------------------------------|-----------------7---7-9---9---------|
|---------------------------------|-------------------------------------|
|---------------------------------|-------------------------------------|
|---------------------------------|-------------------------------------|


   E    Q         E    Q          E    E      E    E    E    E     E     E     E    E
|------------------------------------------|-------8----8---10----10s===12----10s===8---|
|--6s===8---------6s===8----------8--------|--------------------------------------------|
|-------------------------------------10---|--------------------------------------------|
|------------------------------------------|--------------------------------------------|
|------------------------------------------|--------------------------------------------|
|------------------------------------------|--------------------------------------------|


   E    Q         E    Q          E    E       q          Q         E    S  E    S  E
|-------------------------------------------|----------------------------------------------|
|--6s===8---------6s===8----------8----8----|--------------------------------------10------|
|-------------------------------------------|-10--------------------7----7--9----9---------|
|-------------------------------------------|----------------------------------------------|
|-------------------------------------------|----------------------------------------------|
|-------------------------------------------|----------------------------------------------|


   E    Q         E    Q          E    E      E    E    E    E     E     E     E    E
|------------------------------------------|-------8----8---10----10s===12----10s===8---|
|--6s===8---------6s===8----------8--------|--------------------------------------------|
|-------------------------------------10---|--------------------------------------------|
|------------------------------------------|--------------------------------------------|
|------------------------------------------|--------------------------------------------|
|------------------------------------------|--------------------------------------------|


   E    Q         E    Q          E    E       q          E    E     q          Q
|-------------------------------------------|----------------------------------------------|
|--6s===8---------6s===8----------8----8----|-------------8----8---------------------------|
|-------------------------------------------|-10--------------------10---------------------|
|-------------------------------------------|----------------------------------------------|
|-------------------------------------------|----------------------------------------------|
|-------------------------------------------|----------------------------------------------|


   W               W               W               W
|---------------|---------------|---------------|---------------|
|---------------|---------------|---------------|---------------|
|---------------|---------------|---------------|---------------|
|---------------|---------------|---------------|---------------|
|---------------|---------------|---------------|---------------|
|---------------|---------------|---------------|---------------|


  Q  H     E  E   H     E S E   S  E   Q  H     E  E   H     E E E E
|-8--------8----|--------------------|-8--------8----|---------------|
|------------10-|-----------------10-|------------10-|---------5-6-5-|
|---------------|-------7-7-9---9----|---------------|---------------|
|---------------|--------------------|---------------|---------------|
|---------------|--------------------|---------------|---------------|
|---------------|--------------------|---------------|---------------|


   E Q    q    E  E E    q    E a E  E E  E  E    E Q    q    E  E E    q    E a E  E E  E  E
|---------8-----------|---------7s8------------|---------8-----------|---------7s8------------|
|--6s8---------8--8-8-|--6---10-----10-5--6--5-|--6s8---------8--8-8-|--6---10-----10-5--6--5-|
|---------------------|------------------------|---------------------|------------------------|
|---------------------|------------------------|---------------------|------------------------|
|---------------------|------------------------|---------------------|------------------------|
|---------------------|------------------------|---------------------|------------------------|


   E Q    q    E  E E    q    E a E  E E  E  E    E Q    q    E  E E   q   E a E  E E E  E
|---------8-----------|---------7s8------------|---------8-----------|-------7s8-----------|
|--6s8---------8--8-8-|--6---10-----10-5--6--5-|--6s8---------8--8-8-|-6--10-----10-----10-|
|---------------------|------------------------|---------------------|--------------7-9----|
|---------------------|------------------------|---------------------|---------------------|
|---------------------|------------------------|---------------------|---------------------|
|---------------------|------------------------|---------------------|---------------------|


   E    Q         E    Q          E    E      E    E    E    E     E     E     E    E
|------------------------------------------|-------8----8---10----10s===12----10s===8---|
|--6s===8---------6s===8----------8--------|--------------------------------------------|
|-------------------------------------10---|--------------------------------------------|
|------------------------------------------|--------------------------------------------|
|------------------------------------------|--------------------------------------------|
|------------------------------------------|--------------------------------------------|


   E    Q         E    Q          E    E       q          Q         E    S  E    S  E
|-------------------------------------------|----------------------------------------------|
|--6s===8---------6s===8----------8----8----|--------------------------------------10------|
|-------------------------------------------|-10--------------------7----7--9----9---------|
|-------------------------------------------|----------------------------------------------|
|-------------------------------------------|----------------------------------------------|
|-------------------------------------------|----------------------------------------------|


   E    Q         E    Q          E    E      E    E    E    E     E     E     E    E
|------------------------------------------|-------8----8---10----10s===12----10s===8---|
|--6s===8---------6s===8----------8--------|--------------------------------------------|
|-------------------------------------10---|--------------------------------------------|
|------------------------------------------|--------------------------------------------|
|------------------------------------------|--------------------------------------------|
|------------------------------------------|--------------------------------------------|


   E    Q         E    Q          E    E       q          E    E     q          Q
|-------------------------------------------|----------------------------------------------|
|--6s===8---------6s===8----------8----8----|-------------8----8---------------------------|
|-------------------------------------------|-10--------------------10---------------------|
|-------------------------------------------|----------------------------------------------|
|-------------------------------------------|----------------------------------------------|
|-------------------------------------------|----------------------------------------------|


   W               W               W               W
|---------------|---------------|---------------|---------------|
|---------------|---------------|---------------|---------------|
|---------------|---------------|---------------|---------------|
|---------------|---------------|---------------|---------------|
|---------------|---------------|---------------|---------------|
|---------------|---------------|---------------|---------------|


   W               W               W               W
|---------------|---------------|---------------|---------------|
|---------------|---------------|---------------|---------------|
|---------------|---------------|---------------|---------------|
|---------------|---------------|---------------|---------------|
|---------------|---------------|---------------|---------------|
|---------------|---------------|---------------|---------------|


  Q.   E Q  E  E   Q  E E q  E  E   Q.   E Q  E  E   Q  E E E E E  E
|-8---------8----|----------------|-8---------8----|-----------------|
|------6s8----10-|----8-8-6----10-|------6s8----10-|----8-8-6-----10-|
|----------------|-----------9----|----------------|----------7-9----|
|----------------|----------------|----------------|-----------------|
|----------------|----------------|----------------|-----------------|
|----------------|----------------|----------------|-----------------|


  Q.   E Q  E  E   E E E  E E E E  E    E  E  E E  H           W            
|-8---------8----|---8-8-10---8-8-10-|-10s12-10s8-----------|---------------|
|------6s8----10-|-------------------|----------------------|---------------|
|----------------|-------------------|----------------------|---------------|
|----------------|-------------------|----------------------|---------------|
|----------------|-------------------|----------------------|---------------|
|----------------|-------------------|----------------------|---------------|


   W               W               Q        H           E  E    H                 E   E    E  E
|---------------|---------------|--8--------------------8----|-----------------------------------|
|---------------|---------------|-------------------------10-|-------------------------------10--|
|---------------|---------------|----------------------------|------------------------7----9-----|
|---------------|---------------|----------------------------|-----------------------------------|
|---------------|---------------|----------------------------|-----------------------------------|
|---------------|---------------|----------------------------|-----------------------------------|


   Q        H           E  E    H          E E  E  E   E E E  E E S E S  E
|--8--------------------8----|---------------8--8-10-|---8-8-10------------|
|-------------------------10-|-----------------------|------------------10-|
|----------------------------|-----------------------|----------7-7-9-9----|
|----------------------------|-----------------------|---------------------|
|----------------------------|-----------------------|---------------------|
|----------------------------|-----------------------|---------------------|


   E   Q        q        E    E    E      E   E    E    E    E    E    E    E
|---------------8----------------------|------8----8---10---10s==12---10s===8---|
|--6s==8----------------------8--------|----------------------------------------|
|---------------------------------10---|----------------------------------------|
|--------------------------------------|----------------------------------------|
|--------------------------------------|----------------------------------------|
|--------------------------------------|----------------------------------------|


   E   Q        q        E    E   E      q        E   a E    E   E    E    E
|---------------8---------------------|---------------7s8-------------------------|
|--6s==8----------------------8---8---|----------10---------10------------10------|
|-------------------------------------|-10-----------------------7----9-----------|
|-------------------------------------|-------------------------------------------|
|-------------------------------------|-------------------------------------------|
|-------------------------------------|-------------------------------------------|


   E   Q        q        E    E    E      E   E    E    E    E    E    E    E
|---------------8----------------------|------8----8---10---10s==12---10s===8---|
|--6s==8----------------------8--------|----------------------------------------|
|---------------------------------10---|----------------------------------------|
|--------------------------------------|----------------------------------------|
|--------------------------------------|----------------------------------------|
|--------------------------------------|----------------------------------------|


   E   Q        q        E    E   E      q        E   a E    E   E    E    E
|---------------8---------------------|---------------7s8-------------------------|
|--6s==8----------------------8---8---|----------10---------10------------10------|
|-------------------------------------|-10-----------------------7----9-----------|
|-------------------------------------|-------------------------------------------|
|-------------------------------------|-------------------------------------------|
|-------------------------------------|-------------------------------------------|


   E    Q         q         E     E    E      E    E    E    E     E     E     E    E
|-----------------8------------------------|-------8----8---10----10s===12----10s===8---|
|--6s===8-------------------------8--------|--------------------------------------------|
|-------------------------------------10---|--------------------------------------------|
|------------------------------------------|--------------------------------------------|
|------------------------------------------|--------------------------------------------|
|------------------------------------------|--------------------------------------------|


   E    Q         q         E     E    E       E    E     E    E    E    S  E    S  E
|-----------------8-------------------------|-------8-----8---10---------------------------|
|--6s===8-------------------------8----8----|--------------------------------------10------|
|-------------------------------------------|-10--------------------7----7--9----9---------|
|-------------------------------------------|----------------------------------------------|
|-------------------------------------------|----------------------------------------------|
|-------------------------------------------|----------------------------------------------|


   E    Q         q         E     E    E      E    E    E    E    E    E     E    E
|-----------------8------------------------|-------8----8---10---------8-----8---10---|
|--6s===8-------------------------8--------|------------------------------------------|
|-------------------------------------10---|------------------------------------------|
|------------------------------------------|------------------------------------------|
|------------------------------------------|------------------------------------------|
|------------------------------------------|------------------------------------------|


   E    Q         q         E     E    E       E    E     E    E     E     E     E   E
|-----------------8-------------------------|-------8-----8---10----10s===12----10s==8------|
|--6s===8-------------------------8----8----|-----------------------------------------------|
|-------------------------------------------|-10--------------------------------------------|
|-------------------------------------------|-----------------------------------------------|
|-------------------------------------------|-----------------------------------------------|
|-------------------------------------------|-----------------------------------------------|


  E Q  E Q  E E   +E  E Q  E Q  E   Q  E Q  E Q    W
|---------------|-----------------|--------------|------*|
|-6s8--6s8--6s8-|-(8)-6s8--6s8--6s|=8--6s8--6s8--|------*|
|---------------|-----------------|--------------|------*|
|---------------|-----------------|--------------|------*|
|---------------|-----------------|--------------|------*|
|---------------|-----------------|--------------|------*|




Instruments

   E E  E E  E E  E E    E E  E E  E E  E  E    E E  E E  E E  E E    E E  E E  E E  E  E
|-10-8-10-8-10-8-10-8-|-------------------10-|-10-8-10-8-10-8-10-8-|-------------------10--|
|---------------------|-10-8-10-8-10-8-10----|---------------------|-10-8-10-8-10-8-10-----|
|---------------------|----------------------|---------------------|-----------------------|
|---------------------|----------------------|---------------------|-----------------------|
|---------------------|----------------------|---------------------|-----------------------|
|---------------------|----------------------|---------------------|-----------------------|


   E E  E E  E E  E  E    E E  E E  E E  E  E    E E  E E  E E  E  E    E E  E E  E E  E  E
|-10-8-10-8-10-8-10--8-|-------------------10-|-10-8-10-8-10-8-10--8-|-------------------10-|
|----------------------|-10-8-10-8-10-8-10----|----------------------|-10-8-10-8-10-8-10----|
|----------------------|----------------------|----------------------|----------------------|
|----------------------|----------------------|----------------------|----------------------|
|----------------------|----------------------|----------------------|----------------------|
|----------------------|----------------------|----------------------|----------------------|
|
|
|  Q    Q    Q    Q       Q    Q    Q    Q       Q    Q    Q    Q       Q    Q    Q    Q
|----------------------|----------------------|----------------------|----------------------|
|--5----5----5----5----|--6----6----6----6----|--5----5----5----5----|--6----6----6----6----|
|--5----5----5----5----|--5----5----5----5----|--5----5----5----5----|--5----5----5----5----|
|--5----5----5----5----|--7----7----7----7----|--5----5----5----5----|--7----7----7----7----|
|----------------------|----------------------|----------------------|----------------------|
|----------------------|----------------------|----------------------|----------------------|



   E E  E E  E E  E  E    E E  E E  E E  E  E    E E  E E  E E  E  E    E E  E E  E E  E  E
|-10-8-10-8-10-8-10--8-|-------------------10-|-10-8-10-8-10-8-10--8-|-------------------10-|
|----------------------|-10-8-10-8-10-8-10----|----------------------|-10-8-10-8-10-8-10----|
|----------------------|----------------------|----------------------|----------------------|
|----------------------|----------------------|----------------------|----------------------|
|----------------------|----------------------|----------------------|----------------------|
|----------------------|----------------------|----------------------|----------------------|
|
|  Q    Q    Q    Q       Q    Q    Q    Q       Q    Q    Q    Q       Q    Q    Q    Q
|----------------------|----------------------|----------------------|----------------------|
|--5----5----5----5----|--6----6----6----6----|--5----5----5----5----|--6----6----6----6----|
|--5----5----5----5----|--5----5----5----5----|--5----5----5----5----|--5----5----5----5----|
|--5----5----5----5----|--7----7----7----7----|--5----5----5----5----|--7----7----7----7----|
|----------------------|----------------------|----------------------|----------------------|
|----------------------|----------------------|----------------------|----------------------|



  S S S S S S S S S S S S S S S S   S S S S S S S S S S S S S S S S
|---------------------------------|-5-5-5-5-5-5-5-5-5-5-5-5-5-5-5-5-|
|-5-5-5-5-5-5-5-5-5-5-5-5-5-5-5-5-|-6-6-6-6-6-6-6-6-6-6-6-6-6-6-6-6-|
|-5-5-5-5-5-5-5-5-5-5-5-5-5-5-5-5-|-5-5-5-5-5-5-5-5-5-5-5-5-5-5-5-5-|
|-5-5-5-5-5-5-5-5-5-5-5-5-5-5-5-5-|-7-7-7-7-7-7-7-7-7-7-7-7-7-7-7-7-|
|-7-7-7-7-7-7-7-7-7-7-7-7-7-7-7-7-|-8-8-8-8-8-8-8-8-8-8-8-8-8-8-8-8-|
|-8-8-8-8-8-8-8-8-8-8-8-8-8-8-8-8-|---------------------------------|


  S S S S S S S S S S S S S S S S   S S S S S S S S S S S S S S S S
|---------------------------------|-5-5-5-5-5-5-5-5-5-5-5-5-5-5-5-5----|
|-5-5-5-5-5-5-5-5-5-5-5-5-5-5-5-5-|-6-6-6-6-6-6-6-6-6-6-6-6-6-6-6-6----|
|-5-5-5-5-5-5-5-5-5-5-5-5-5-5-5-5-|-5-5-5-5-5-5-5-5-5-5-5-5-5-5-5-5----|
|-5-5-5-5-5-5-5-5-5-5-5-5-5-5-5-5-|-7-7-7-7-7-7-7-7-7-7-7-7-7-7-7-7----|
|-7-7-7-7-7-7-7-7-7-7-7-7-7-7-7-7-|-8-8-8-8-8-8-8-8-8-8-8-8-8-8-8-8----|
|-8-8-8-8-8-8-8-8-8-8-8-8-8-8-8-8-|------------------------------------|


  S S S S S S S S S S S S S S S S   S S S S S S S S S S S S S S S S
|---------------------------------|-5-5-5-5-5-5-5-5-5-5-5-5-5-5-5-5-|
|-5-5-5-5-5-5-5-5-5-5-5-5-5-5-5-5-|-6-6-6-6-6-6-6-6-6-6-6-6-6-6-6-6-|
|-5-5-5-5-5-5-5-5-5-5-5-5-5-5-5-5-|-5-5-5-5-5-5-5-5-5-5-5-5-5-5-5-5-|
|-5-5-5-5-5-5-5-5-5-5-5-5-5-5-5-5-|-7-7-7-7-7-7-7-7-7-7-7-7-7-7-7-7-|
|-7-7-7-7-7-7-7-7-7-7-7-7-7-7-7-7-|-8-8-8-8-8-8-8-8-8-8-8-8-8-8-8-8-|
|-8-8-8-8-8-8-8-8-8-8-8-8-8-8-8-8-|---------------------------------|


  S S S S S S S S S S S S S S S S   S S S S S S S S S S S S S S  S S
|---------------------------------|-5-5-5-5-5-5-5-5-5-5-5-5-5-5--5-5----|
|-5-5-5-5-5-5-5-5-5-5-5-5-5-5-5-5-|-6-6-6-6-6-6-6-6-6-6-6-6-6-6--6-6----|
|-5-5-5-5-5-5-5-5-5-5-5-5-5-5-5-5-|-5-5-5-5-5-5-5-5-5-5-5-5-5-5--5-5----|
|-5-5-5-5-5-5-5-5-5-5-5-5-5-5-5-5-|-7-7-7-7-7-7-7-7-7-7-7-7-7-7--7-7----|
|-7-7-7-7-7-7-7-7-7-7-7-7-7-7-7-7-|-8-8-8-8-8-8-8-8-8-8-8-8-8-8--8-8----|
|-8-8-8-8-8-8-8-8-8-8-8-8-8-8-8-8-|-------------------------------------|


   e    e    E    S  e    e    S  E    E      e    e    E    S  e     e     S  E    E
|------------------------------------------|--------------------------------------------|
|----------------10-------------------10---|----------------10---------------------10---|
|-----------12-------------------12--------|-----------12---------------------12--------|
|-10---10-----------10---10---10-----------|-10---10-----------10----10----10-----------|
|------------------------------------------|--------------------------------------------|
|------------------------------------------|--------------------------------------------|
|
|
|  S S  S S  S S  S  S S  S S  S  S S  S S    S S  S S  S S  S  S  S  S  S  S  S S  S S
|------------------------------------------|--5-5--5-5--5-5--5--5--5--5--5--5--5-5--5-5-|
|--5-5--5-5--5-5--5--5-5--5-5--5--5-5--5-5-|--6-6--6-6--6-6--6--6--6--6--6--6--6-6--6-6-|
|--5-5--5-5--5-5--5--5-5--5-5--5--5-5--5-5-|--5-5--5-5--5-5--5--5--5--5--5--5--5-5--5-5-|
|--5-5--5-5--5-5--5--5-5--5-5--5--5-5--5-5-|--7-7--7-7--7-7--7--7--7--7--7--7--7-7--7-7-|
|--7-7--7-7--7-7--7--7-7--7-7--7--7-7--7-7-|--8-8--8-8--8-8--8--8--8--8--8--8--8-8--8-8-|
|--8-8--8-8--8-8--8--8-8--8-8--8--8-8--8-8-|--------------------------------------------|



   e    e    E    S  e    e    S  E    S  S    S  e    S  E    S  e    e    S  E    E
|-------------------------------------------|----------------------------------------------|
|----------------10-------------------10----|-----------------10---------------------------|
|-----------12-------------------12---------|------------12-------------------12-----------|
|-10---10-----------10---10---10---------10-|----10---10---------10---10---10--------------|
|-------------------------------------------|----------------------------------------------|
|-------------------------------------------|----------------------------------------------|
|
|  S S  S S  S S  S  S S  S S  S  S S  S  S    S  S S  S  S S  S  S S  S S  S  S S  S S
|-------------------------------------------|--5--5-5--5--5-5--5--5-5--5-5--5--5-5--5-5----|
|--5-5--5-5--5-5--5--5-5--5-5--5--5-5--5--5-|--6--6-6--6--6-6--6--6-6--6-6--6--6-6--6-6----|
|--5-5--5-5--5-5--5--5-5--5-5--5--5-5--5--5-|--5--5-5--5--5-5--5--5-5--5-5--5--5-5--5-5----|
|--5-5--5-5--5-5--5--5-5--5-5--5--5-5--5--5-|--7--7-7--7--7-7--7--7-7--7-7--7--7-7--7-7----|
|--7-7--7-7--7-7--7--7-7--7-7--7--7-7--7--7-|--8--8-8--8--8-8--8--8-8--8-8--8--8-8--8-8----|
|--8-8--8-8--8-8--8--8-8--8-8--8--8-8--8--8-|----------------------------------------------|



   e    e    E    S  e    e    S  E    E      e    e    E    S  e     e     S  E    E
|------------------------------------------|--------------------------------------------|
|----------------10-------------------10---|----------------10---------------------10---|
|-----------12-------------------12--------|-----------12---------------------12--------|
|-10---10-----------10---10---10-----------|-10---10-----------10----10----10-----------|
|------------------------------------------|--------------------------------------------|
|------------------------------------------|--------------------------------------------|
|
|  S S  S S  S S  S  S S  S S  S  S S  S S    S S  S S  S S  S  S  S  S  S  S  S S  S S
|------------------------------------------|--5-5--5-5--5-5--5--5--5--5--5--5--5-5--5-5-|
|--5-5--5-5--5-5--5--5-5--5-5--5--5-5--5-5-|--6-6--6-6--6-6--6--6--6--6--6--6--6-6--6-6-|
|--5-5--5-5--5-5--5--5-5--5-5--5--5-5--5-5-|--5-5--5-5--5-5--5--5--5--5--5--5--5-5--5-5-|
|--5-5--5-5--5-5--5--5-5--5-5--5--5-5--5-5-|--7-7--7-7--7-7--7--7--7--7--7--7--7-7--7-7-|
|--7-7--7-7--7-7--7--7-7--7-7--7--7-7--7-7-|--8-8--8-8--8-8--8--8--8--8--8--8--8-8--8-8-|
|--8-8--8-8--8-8--8--8-8--8-8--8--8-8--8-8-|--------------------------------------------|



   e    e    E    S  e    e    S  E    S  S    S  e    S  E    S  e     e    S  E   E
|-------------------------------------------|----------------------------------------------|
|----------------10-------------------10----|-----------------10---------------------------|
|-----------12-------------------12---------|------------12--------------------12----------|
|-10---10-----------10---10---10---------10-|----10---10---------10----10---10-------------|
|-------------------------------------------|----------------------------------------------|
|-------------------------------------------|----------------------------------------------|
|
|  S S  S S  S S  S  S S  S S  S  S S  S  S    S  S S  S  S S  S  S  S  S S  S  S S S S
|-------------------------------------------|--5--5-5--5--5-5--5--5--5--5-5--5--5-5-5-5----|
|--5-5--5-5--5-5--5--5-5--5-5--5--5-5--5--5-|--6--6-6--6--6-6--6--6--6--6-6--6--6-6-6-6----|
|--5-5--5-5--5-5--5--5-5--5-5--5--5-5--5--5-|--5--5-5--5--5-5--5--5--5--5-5--5--5-5-5-5----|
|--5-5--5-5--5-5--5--5-5--5-5--5--5-5--5--5-|--7--7-7--7--7-7--7--7--7--7-7--7--7-7-7-7----|
|--7-7--7-7--7-7--7--7-7--7-7--7--7-7--7--7-|--8--8-8--8--8-8--8--8--8--8-8--8--8-8-8-8----|
|--8-8--8-8--8-8--8--8-8--8-8--8--8-8--8--8-|----------------------------------------------|



   e    e    E    S  e    e  S  E  E    e    e    E    S  e    e  S  E  E
|-15---15-----------15---15-15-------|-15---15-----------15---15-15-------|
|-----------17---15------------17-15-|-----------17---15------------17-15-|
|------------------------------------|------------------------------------|
|------------------------------------|------------------------------------|
|------------------------------------|------------------------------------|
|------------------------------------|------------------------------------|
|
|
|  S S  S E    S  E    Q        Q       S S  S E    S  E    Q        Q
|------------------------------------|------------------------------------|
|------------------------------------|------------------------------------|
|----------------------0-------------|----------------------0-------------|
|----0--0-0-------2------------------|----0--0-0-------2------------------|
|------------------------------------|------------------------------------|
|--3-----------3---------------------|--3-----------3---------------------|



   e    e    E    S  e    e  S  E  S  S    S   e  S  E  S  e  e  S  E E
|-15---15-----------15---15-15-------15-|-----15-15-------15-15-15-------|
|-----------17---15------------17-15----|-----------17-15----------17----|
|---------------------------------------|--------------------------------|
|---------------------------------------|--------------------------------|
|---------------------------------------|--------------------------------|
|---------------------------------------|--------------------------------|
|
|  S S  S E    S  E    H                  +W
|---------------------------------------|--------------------------------|
|---------------------------------------|--------------------------------|
|----------------------0----------------|-(0)----------------------------|
|----0--0-0-------2---------------------|--------------------------------|
|---------------------------------------|--------------------------------|
|--3-----------3------------------------|--------------------------------|



  Q  Q  Q  Q      Q  Q  Q     Q        Q  Q  Q  Q      Q  Q  Q   Q
|---------------|--------------------|---------------|---------------|
|-5--5--5--5----|-6--6--6-----6------|-5--5--5--5----|-6--6--6---6---|
|-5--5--5--5----|-5--5--5-----5------|-5--5--5--5----|-5--5--5---5---|
|-5--5--5--5----|-7--7--7-----7------|-5--5--5--5----|-7--7--7---7---|
|---------------|--------------------|---------------|---------------|
|---------------|--------------------|---------------|---------------|


   E E  E E  E E  E E    E E  E   E  E E  E  E    E E  E E  E E  E E    E E  E   E  E E  E  E
|-10-8-10-8-10-8-10-8-|---------------------10-|-10-8-10-8-10-8-10-8-|---------------------10-|
|---------------------|-10-8-10---8-10-8-10----|---------------------|-10-8-10---8-10-8-10----|
|---------------------|------------------------|---------------------|------------------------|
|---------------------|------------------------|---------------------|------------------------|
|---------------------|------------------------|---------------------|------------------------|
|---------------------|------------------------|---------------------|------------------------|


   E E  E E  E E  E E    E E  E   E  E E  E  E    E E  E E  E E  E E   W
|-10-8-10-8-10-8-10-8-|---------------------10-|-10-8-10-8-10-8-10-8-|---------------------|
|---------------------|-10-8-10---8-10-8-10----|---------------------|---------------------|
|---------------------|------------------------|---------------------|---------------------|
|---------------------|------------------------|---------------------|---------------------|
|---------------------|------------------------|---------------------|---------------------|
|---------------------|------------------------|---------------------|---------------------|


   e    e    E    S  e    e    S  E    E      e    e    E    S  e     e     S  E    E
|------------------------------------------|--------------------------------------------|
|----------------10-------------------10---|----------------10---------------------10---|
|-----------12-------------------12--------|-----------12---------------------12--------|
|-10---10-----------10---10---10-----------|-10---10-----------10----10----10-----------|
|------------------------------------------|--------------------------------------------|
|------------------------------------------|--------------------------------------------|
|
|
|  S S  S S  S S  S  S S  S S  S  S S  S S    S S  S S  S S  S  S  S  S  S  S  S S  S S
|------------------------------------------|--5-5--5-5--5-5--5--5--5--5--5--5--5-5--5-5-|
|--5-5--5-5--5-5--5--5-5--5-5--5--5-5--5-5-|--6-6--6-6--6-6--6--6--6--6--6--6--6-6--6-6-|
|--5-5--5-5--5-5--5--5-5--5-5--5--5-5--5-5-|--5-5--5-5--5-5--5--5--5--5--5--5--5-5--5-5-|
|--5-5--5-5--5-5--5--5-5--5-5--5--5-5--5-5-|--7-7--7-7--7-7--7--7--7--7--7--7--7-7--7-7-|
|--7-7--7-7--7-7--7--7-7--7-7--7--7-7--7-7-|--8-8--8-8--8-8--8--8--8--8--8--8--8-8--8-8-|
|--8-8--8-8--8-8--8--8-8--8-8--8--8-8--8-8-|--------------------------------------------|



   e    e    E    S  e    e    S  E    S  S    S  e    S  E    S  e    e    S  E    E
|-------------------------------------------|----------------------------------------------|
|----------------10-------------------10----|-----------------10---------------------------|
|-----------12-------------------12---------|------------12-------------------12-----------|
|-10---10-----------10---10---10---------10-|----10---10---------10---10---10--------------|
|-------------------------------------------|----------------------------------------------|
|-------------------------------------------|----------------------------------------------|
|
|  S S  S S  S S  S  S S  S S  S  S S  S  S    S  S S  S  S S  S  S S  S S  S  S S  S S
|-------------------------------------------|--5--5-5--5--5-5--5--5-5--5-5--5--5-5--5-5----|
|--5-5--5-5--5-5--5--5-5--5-5--5--5-5--5--5-|--6--6-6--6--6-6--6--6-6--6-6--6--6-6--6-6----|
|--5-5--5-5--5-5--5--5-5--5-5--5--5-5--5--5-|--5--5-5--5--5-5--5--5-5--5-5--5--5-5--5-5----|
|--5-5--5-5--5-5--5--5-5--5-5--5--5-5--5--5-|--7--7-7--7--7-7--7--7-7--7-7--7--7-7--7-7----|
|--7-7--7-7--7-7--7--7-7--7-7--7--7-7--7--7-|--8--8-8--8--8-8--8--8-8--8-8--8--8-8--8-8----|
|--8-8--8-8--8-8--8--8-8--8-8--8--8-8--8--8-|----------------------------------------------|



   e    e    E    S  e    e    S  E    E      e    e    E    S  e     e     S  E    E
|------------------------------------------|--------------------------------------------|
|----------------10-------------------10---|----------------10---------------------10---|
|-----------12-------------------12--------|-----------12---------------------12--------|
|-10---10-----------10---10---10-----------|-10---10-----------10----10----10-----------|
|------------------------------------------|--------------------------------------------|
|------------------------------------------|--------------------------------------------|
|
|  S S  S S  S S  S  S S  S S  S  S S  S S    S S  S S  S S  S  S  S  S  S  S  S S  S S
|------------------------------------------|--5-5--5-5--5-5--5--5--5--5--5--5--5-5--5-5-|
|--5-5--5-5--5-5--5--5-5--5-5--5--5-5--5-5-|--6-6--6-6--6-6--6--6--6--6--6--6--6-6--6-6-|
|--5-5--5-5--5-5--5--5-5--5-5--5--5-5--5-5-|--5-5--5-5--5-5--5--5--5--5--5--5--5-5--5-5-|
|--5-5--5-5--5-5--5--5-5--5-5--5--5-5--5-5-|--7-7--7-7--7-7--7--7--7--7--7--7--7-7--7-7-|
|--7-7--7-7--7-7--7--7-7--7-7--7--7-7--7-7-|--8-8--8-8--8-8--8--8--8--8--8--8--8-8--8-8-|
|--8-8--8-8--8-8--8--8-8--8-8--8--8-8--8-8-|--------------------------------------------|



   e    e    E    S  e    e    S  E    S  S    S  e    S  E    S  e     e    S  E   E
|-------------------------------------------|----------------------------------------------|
|----------------10-------------------10----|-----------------10---------------------------|
|-----------12-------------------12---------|------------12--------------------12----------|
|-10---10-----------10---10---10---------10-|----10---10---------10----10---10-------------|
|-------------------------------------------|----------------------------------------------|
|-------------------------------------------|----------------------------------------------|
|
|  S S  S S  S S  S  S S  S S  S  S S  S  S    S  S S  S  S S  S  S  S  S S  S  S S S S
|-------------------------------------------|--5--5-5--5--5-5--5--5--5--5-5--5--5-5-5-5----|
|--5-5--5-5--5-5--5--5-5--5-5--5--5-5--5--5-|--6--6-6--6--6-6--6--6--6--6-6--6--6-6-6-6----|
|--5-5--5-5--5-5--5--5-5--5-5--5--5-5--5--5-|--5--5-5--5--5-5--5--5--5--5-5--5--5-5-5-5----|
|--5-5--5-5--5-5--5--5-5--5-5--5--5-5--5--5-|--7--7-7--7--7-7--7--7--7--7-7--7--7-7-7-7----|
|--7-7--7-7--7-7--7--7-7--7-7--7--7-7--7--7-|--8--8-8--8--8-8--8--8--8--8-8--8--8-8-8-8----|
|--8-8--8-8--8-8--8--8-8--8-8--8--8-8--8--8-|----------------------------------------------|



   e    e    E    S  e    e  S  E  E    e    e    E    S  e    e  S  E  E
|-15---15-----------15---15-15-------|-15---15-----------15---15-15-------|
|-----------17---15------------17-15-|-----------17---15------------17-15-|
|------------------------------------|------------------------------------|
|------------------------------------|------------------------------------|
|------------------------------------|------------------------------------|
|------------------------------------|------------------------------------|
|
|
|  S S  S E    S  E    Q        Q       S S  S E    S  E    Q        Q
|------------------------------------|------------------------------------|
|------------------------------------|------------------------------------|
|----------------------0-------------|----------------------0-------------|
|----0--0-0-------2------------------|----0--0-0-------2------------------|
|------------------------------------|------------------------------------|
|--3-----------3---------------------|--3-----------3---------------------|



   e    e    E    S  e    e  S  E  S  S   S  e    S  E    S  e    e  S  E E
|-15---15-----------15---15-15-------15-|---15---15---------15---15-15---------|
|-----------17---15------------17-15----|-----------17---15------------17------|
|---------------------------------------|--------------------------------------|
|---------------------------------------|--------------------------------------|
|---------------------------------------|--------------------------------------|
|---------------------------------------|--------------------------------------|
|
|  S S  S E    S  E    Q        Q         S  S S  E    S  S  S S  E  S  Q
|---------------------------------------|--------------------------------------|
|---------------------------------------|--------------------------------------|
|----------------------0----------------|--------------------------------------|
|----0--0-0-------2---------------------|----0-0--0----------0-0--0------------|
|---------------------------------------|--------------------------------------|
|--3-----------3------------------------|-3---------------3--------------------|



  S S S E S E Q  Q    S S S E S E Q  Q    S S S E S S S S E E S E   W
|-------------------|-------------------|-------------------------|------|
|-------------------|-------------------|-------------------------|------|
|-------------0-----|-------------0-----|-------------------------|-0----|
|---0-0-0---2-------|---0-0-0---2-------|---0-0-0-----0-0-0-----2-|------|
|-------------------|-------------------|-------------------------|------|
|-3-------3---------|-3-------3---------|-3---------3---------3---|------|


  W                W                W                W
|----------------|----------------|----------------|-----------------|
|----------------|----------------|----------------|-----------------|
|----------------|----------------|----------------|-----------------|
|----------------|----------------|----------------|-----------------|
|----------------|----------------|----------------|-----------------|
|----------------|----------------|----------------|-----------------|


  W                W                    E  E  E E  E E  E E    E E  E E  E E  E  E
|----------------|-------------------|-10--8-10-8-10-8-10-8-|-------------------10-|
|----------------|-------------------|----------------------|-10-8-10-8-10-8-10----|
|----------------|-------------------|----------------------|----------------------|
|----------------|-------------------|----------------------|----------------------|
|----------------|-------------------|----------------------|----------------------|
|----------------|-------------------|----------------------|----------------------|
|
| W                W                    Q     Q    Q    Q      Q    Q    Q    Q
|----------------|-------------------|----------------------|----------------------|
|----------------|-------------------|--5-----5----5----5---|--6----6----6----6----|
|----------------|-------------------|--5-----5----5----5---|--5----5----5----5----|
|----------------|-------------------|--5-----5----5----5---|--7----7----7----7----|
|----------------|-------------------|----------------------|----------------------|
|----------------|-------------------|----------------------|----------------------|



   E E  E E  E E  E E    E E  E E  E E  E  E    E   E    E   E  E E  E E    E   E    E   E  E E  E  E
|-10-8-10-8-10-8-10-8-|-------------------10-|-10---8---10---8-10-8-10-8-|-------------------------10-|
|---------------------|-10-8-10-8-10-8-10----|---------------------------|-10---8---10---8-10-8-10----|
|---------------------|----------------------|---------------------------|----------------------------|
|---------------------|----------------------|---------------------------|----------------------------|
|---------------------|----------------------|---------------------------|----------------------------|
|---------------------|----------------------|---------------------------|----------------------------|
|
|
|  Q    Q    Q    Q      Q    Q    Q    Q       S S S E    S E  Q    Q      S S S E    S E  Q    Q
|---------------------|----------------------|---------------------------|----------------------------|
|--5----5----5----5---|--6----6----6----6----|---------------------------|----------------------------|
|--5----5----5----5---|--5----5----5----5----|------------------0--------|------------------0---------|
|--5----5----5----5---|--7----7----7----7----|----0-0-0------2-----------|----0-0-0------2------------|
|---------------------|----------------------|---------------------------|----------------------------|
|---------------------|----------------------|--3----------3-------------|--3----------3--------------|



   E   E    E   E  E E  E   E    E E  E   E  E E  E  E    E   E    E   E  E E  E  E    E   E    E   E    E   E    E  E
|-10---8---10---8-10-8-10---8-|---------------------10-|-10---8---10---8-10-8-10--8-|-------------------------------10--|
|-----------------------------|-10-8-10---8-10-8-10----|----------------------------|-10---8---10---8---10---8---10-----|
|-----------------------------|------------------------|----------------------------|-----------------------------------|
|-----------------------------|------------------------|----------------------------|-----------------------------------|
|-----------------------------|------------------------|----------------------------|-----------------------------------|
|-----------------------------|------------------------|----------------------------|-----------------------------------|
|
|
|  S S S E    S E  Q    S S E    Q    S S E  Q    Q       S S S E    S E  Q    Q       S S S E    S S S  S E   S  Q
|-----------------------------|------------------------|----------------------------|-----------------------------------|
|-----------------------------|------------------------|----------------------------|-----------------------------------|
|------------------0----------|--0-----------0---------|------------------0---------|-----------------------------------|
|----0-0-0------2-----------2-|-----------2------------|----0-0-0------2------------|----0-0-0--------0--0-0------------|
|-----------------------------|------------------------|----------------------------|-----------------------------------|
|--3----------3-----------3---|---------3--------------|--3----------3--------------|--3------------3-------------------|



   E   E    E   E  E E  E  E    E  E  E E  E E  E  E   W
|-10---8---10---8-10-8-10--8-|--------------------10-|---------------------|
|----------------------------|-10--8-10-8-10-8-10----|---------------------|
|----------------------------|-----------------------|---------------------|
|----------------------------|-----------------------|---------------------|
|----------------------------|-----------------------|---------------------|
|----------------------------|-----------------------|---------------------|
|
|  S S S E    S E  H           +H.              Q      W
|----------------------------|-----------------------|---------------------|
|----------------------------|-----------------------|---------------------|
|------------------0---------|-(0)-------------------|---------------------|
|----0-0-0------2------------|-----------------------|---------------------|
|----------------------------|-----------------------|---------------------|
|--3----------3--------------|-----------------------|---------------------|



   E   E    E   E    E   E    E    E      E   E    E    E    E    E    E    E
|-10---8---10---8---10---8---10----8---|-----------------------------------10---|
|--------------------------------------|-10---8---10----8---10----8---10--------|
|--------------------------------------|----------------------------------------|
|--------------------------------------|----------------------------------------|
|--------------------------------------|----------------------------------------|
|--------------------------------------|----------------------------------------|
|
|
|  S S S S  S S S S  S S S S  S S  S S    S S S S  S S  S S  S S  S S  S S  S S
|--------------------------------------|--5-5-5-5--5-5--5-5--5-5--5-5--5-5--5-5-|
|--5-5-5-5--5-5-5-5--5-5-5-5--5-5--5-5-|--6-6-6-6--6-6--6-6--6-6--6-6--6-6--6-6-|
|--5-5-5-5--5-5-5-5--5-5-5-5--5-5--5-5-|--5-5-5-5--5-5--5-5--5-5--5-5--5-5--5-5-|
|--5-5-5-5--5-5-5-5--5-5-5-5--5-5--5-5-|--7-7-7-7--7-7--7-7--7-7--7-7--7-7--7-7-|
|--7-7-7-7--7-7-7-7--7-7-7-7--7-7--7-7-|--8-8-8-8--8-8--8-8--8-8--8-8--8-8--8-8-|
|--8-8-8-8--8-8-8-8--8-8-8-8--8-8--8-8-|----------------------------------------|



   E   E    E   E    E   E    E   E      E   E    E     E    E   E    E    E
|-10---8---10---8---10---8---10---8---|-----------------------------------10------|
|-------------------------------------|-10---8---10-----8---10---8---10-----------|
|-------------------------------------|-------------------------------------------|
|-------------------------------------|-------------------------------------------|
|-------------------------------------|-------------------------------------------|
|-------------------------------------|-------------------------------------------|
|
|  S S S S  S S S S  S S S S  S S S S    S S S S  S S   S S  S S S S  S S  S S
|-------------------------------------|--5-5-5-5--5-5---5-5--5-5-5-5--5-5--5-5----|
|--5-5-5-5--5-5-5-5--5-5-5-5--5-5-5-5-|--6-6-6-6--6-6---6-6--6-6-6-6--6-6--6-6----|
|--5-5-5-5--5-5-5-5--5-5-5-5--5-5-5-5-|--5-5-5-5--5-5---5-5--5-5-5-5--5-5--5-5----|
|--5-5-5-5--5-5-5-5--5-5-5-5--5-5-5-5-|--7-7-7-7--7-7---7-7--7-7-7-7--7-7--7-7----|
|--7-7-7-7--7-7-7-7--7-7-7-7--7-7-7-7-|--8-8-8-8--8-8---8-8--8-8-8-8--8-8--8-8----|
|--8-8-8-8--8-8-8-8--8-8-8-8--8-8-8-8-|-------------------------------------------|



   E   E    E   E    E   E    E    E      E   E    E    E    E    E    E    E
|-10---8---10---8---10---8---10----8---|-----------------------------------10---|
|--------------------------------------|-10---8---10----8---10----8---10--------|
|--------------------------------------|----------------------------------------|
|--------------------------------------|----------------------------------------|
|--------------------------------------|----------------------------------------|
|--------------------------------------|----------------------------------------|
|
|  S S S S  S S S S  S S S S  S S  S S    S S S S  S S  S S  S S  S S  S S  S S
|--------------------------------------|--5-5-5-5--5-5--5-5--5-5--5-5--5-5--5-5-|
|--5-5-5-5--5-5-5-5--5-5-5-5--5-5--5-5-|--6-6-6-6--6-6--6-6--6-6--6-6--6-6--6-6-|
|--5-5-5-5--5-5-5-5--5-5-5-5--5-5--5-5-|--5-5-5-5--5-5--5-5--5-5--5-5--5-5--5-5-|
|--5-5-5-5--5-5-5-5--5-5-5-5--5-5--5-5-|--7-7-7-7--7-7--7-7--7-7--7-7--7-7--7-7-|
|--7-7-7-7--7-7-7-7--7-7-7-7--7-7--7-7-|--8-8-8-8--8-8--8-8--8-8--8-8--8-8--8-8-|
|--8-8-8-8--8-8-8-8--8-8-8-8--8-8--8-8-|----------------------------------------|



   E   E    E   E    E   E    E   E      E   E    E     E    E   E    E    E
|-10---8---10---8---10---8---10---8---|-----------------------------------10------|
|-------------------------------------|-10---8---10-----8---10---8---10-----------|
|-------------------------------------|-------------------------------------------|
|-------------------------------------|-------------------------------------------|
|-------------------------------------|-------------------------------------------|
|-------------------------------------|-------------------------------------------|
|
|  S S S S  S S S S  S S S S  S S S S    S S S S  S S   S S  S S S S  S S  S S
|-------------------------------------|--5-5-5-5--5-5---5-5--5-5-5-5--5-5--5-5----|
|--5-5-5-5--5-5-5-5--5-5-5-5--5-5-5-5-|--6-6-6-6--6-6---6-6--6-6-6-6--6-6--6-6----|
|--5-5-5-5--5-5-5-5--5-5-5-5--5-5-5-5-|--5-5-5-5--5-5---5-5--5-5-5-5--5-5--5-5----|
|--5-5-5-5--5-5-5-5--5-5-5-5--5-5-5-5-|--7-7-7-7--7-7---7-7--7-7-7-7--7-7--7-7----|
|--7-7-7-7--7-7-7-7--7-7-7-7--7-7-7-7-|--8-8-8-8--8-8---8-8--8-8-8-8--8-8--8-8----|
|--8-8-8-8--8-8-8-8--8-8-8-8--8-8-8-8-|-------------------------------------------|



   e    e    E    S  e    e    S  E    E      e    e    E    S  e     e     S  E    E
|------------------------------------------|--------------------------------------------|
|----------------10-------------------10---|----------------10---------------------10---|
|-----------12-------------------12--------|-----------12---------------------12--------|
|-10---10-----------10---10---10-----------|-10---10-----------10----10----10-----------|
|------------------------------------------|--------------------------------------------|
|------------------------------------------|--------------------------------------------|
|
|  S S  S S  S S  S  S S  S S  S  S S  S S    S S  S S  S S  S  S  S  S  S  S  S S  S S
|------------------------------------------|--5-5--5-5--5-5--5--5--5--5--5--5--5-5--5-5-|
|--5-5--5-5--5-5--5--5-5--5-5--5--5-5--5-5-|--6-6--6-6--6-6--6--6--6--6--6--6--6-6--6-6-|
|--5-5--5-5--5-5--5--5-5--5-5--5--5-5--5-5-|--5-5--5-5--5-5--5--5--5--5--5--5--5-5--5-5-|
|--5-5--5-5--5-5--5--5-5--5-5--5--5-5--5-5-|--7-7--7-7--7-7--7--7--7--7--7--7--7-7--7-7-|
|--7-7--7-7--7-7--7--7-7--7-7--7--7-7--7-7-|--8-8--8-8--8-8--8--8--8--8--8--8--8-8--8-8-|
|--8-8--8-8--8-8--8--8-8--8-8--8--8-8--8-8-|--------------------------------------------|



   e    e    E    S  e    e    S  E    S  S    S  e    S  E    S  e    e    S  E    E
|-------------------------------------------|----------------------------------------------|
|----------------10-------------------10----|-----------------10---------------------------|
|-----------12-------------------12---------|------------12-------------------12-----------|
|-10---10-----------10---10---10---------10-|----10---10---------10---10---10--------------|
|-------------------------------------------|----------------------------------------------|
|-------------------------------------------|----------------------------------------------|
|
|  S S  S S  S S  S  S S  S S  S  S S  S