Gametabs
Home
Tabs
Random

Sky Sanctuary

Average rating: 5.000

3 ratings

Composer:

Tabber:

Style:

Instrument:

Created: July 09, 2021 at 12:00 AM

            Sky Sanctuary                                   
Sonic & Knuckles
Composed by Howard Drossin & Sega Sound Team
Arranged by William Geesdorf


Standard Tuning
(If you want, tune your guitar two steps down for original key)


Playing instructions: Play to the end of the measure marked Da Segno. Go back to the measure marked "Segno" and play to the end.


   "Segno"
      E.  E.  E  E.  E.  E       E.  E.  E   E.   E.   E   
E||--------------7---5---4---||--5---4---0--12---11-------|
B||---5---4---0--------------||--0-------0------------12--|
G||*--4---------------------*||---------------------------|
D||*------------------------*||---------------------------|
A||--------------------------||---------------------------|
E||--------------------------||---------------------------|


                           ^                                           
  E.  E.  Q    Q.          E  H        E  E  E     Q.     Q    Q.      
--5---4---0-----------||---0--0-----------------|---------------------|
--0-------0----4------||---0--------------------|---------------------|
---------------4------||*--1-----------------1--|--2------1-----------|
----------------------||*--2--------------2-----|--------------2------|
----------------------||---2-----------2--------|---------------------|
----------------------||---0--------------------|--0------------------|


  ^                                                                   
  E  H        E  E  E     Q.     Q    Q.        E  E  Q    E  Q.      
--0--0-----------------|---------------------|-----------------------|
--3--------------------|---------------------|----------------5------|
--2-----------------1--|--2------1-----------|--------6--------------|
--0-----------0--2-----|--0-----------2------|-----6-------6---------|
-----------------------|---------------------|--4--------------------|
-----------------------|---------------------|-----------------------|

                                                     1st Ending
  Q    E  Q    E  Q       E  E  E  E  E  E  E  E     E  E  E  Q    E  Q       
-----------------------|--------------0--------3--|-----0--2--3----2--0-----||
----------2-------2----|-----------1-----3--1-----|-------------------------||
--2--------------------|--------0-----------------|------------------------*||
-------2-------2-------|-----2--------------------|-------------------0----*||
--4--------------------|--3-----------------------|--3----------------------||
-----------------------|--------------------------|-------------------------||

  2nd Ending
  E  E  E  Q    E  Q       E  E  E  E  E  E  E  E     E  E  E  E  E  E  Q     
-----0--2--3----2--5----|-----------3--------2--2--|-------------------------|
------------------------|--------------------------|--------------3----------|
------------------------|--4-----4-----4-----------|-----4-----4-----4-------|
-------------------0----|-----4-----------4--------|--------4-----------4----|
--3---------------------|--2-----------------------|--2----------------------|
------------------------|--------------------------|-------------------------|


  E  E  E  E  E  E  E  E     E  E  E  E  E  E  Q       E  E  E  E  E  E  E  E   
-----------3--------2--2--|-----5-------------------|-----------3--------2--2--|
--1-----1-----1-----------|--------5-----8-----7----|--------------------------|
-----0-----------0--------|-----------5-----5-------|--4-----4-----4-----------|
--------------------------|-------------------------|-----4-----------4--------|
--3-----------------------|-------------------------|--2-----------------------|
--------------------------|-------------------------|--------------------------|


  E  E  E  E  E  E  Q       E  E  E  E  E  E  Q       E  E   E  E  E   Q.      
-------------------------|-----------0--------3----|--7-----------------------|
--------------3----------|--1-----1-----1----------|--------10--8-----10------|
-----4-----4-----4-------|-----0-----------0-------|-----7---------7----------|
--------4-----------4----|-------------------------|--0-----------------------|
--2----------------------|--3----------------------|--------------------------|
-------------------------|-------------------------|--------------------------|


  ^                                             ^                     
  H        E  E  E  E     Q.     Q    Q.        H        E  E  E  E   
--0--------L-----------|---------------------|--0--------L-----0--4--|
--0--------L-----------|---------------------|--3--------L--0--------|
--1--------L--------1--|--2------1-----------|--2--------L-----------|
--2--------L-----2-----|--------------2------|--0--------L-----------|
--2--------L--2--------|---------------------|-----------------------|
--0--------L-----------|--0------------------|-----------------------|


  Q.     Q    Q.        E  Q    Q    E  E  E     E  Q    E  E  Q    E   
--5------4-----------|--7---------------7-----|-------------7-------0--|
--------------5------|-----5---------5-----5--|-----5----5-----5-------|
---------------------|----------6-------------|------------------------|
--0------------------|------------------------|------------------------|
---------------------|--4---------------------|--4---------------------|
---------------------|------------------------|------------------------|


                                        Da Segno   ^                 
  E  E  E  E  E  E  Q       E  Q.     Q    Q       W                 
-------------------------|----------------------|--0----------------|
--3--------1--------0----|----------------------|--0----------------|
--------0--------0-------|-----2------0----2----|--1----------------|
-----2--------2----------|--0-------------------|--2----------------|
--3----------------------|----------------------|--2----------------|
-------------------------|----------------------|--0----------------|


  W                  
--L----------------||
--L----------------||
--L----------------||
--L----------------||
--L----------------||
--L----------------||




Duration Legend
---------------
W - whole
H - half
Q - quarter
E - 8th
S - 16th
T - 32nd
X - 64th
. - note dotted
|-n-|  - n-tuplets


Tablature Legend
----------------
L - tied note
^ - brush up
        
Comments

@Omnicide (July 20, 2021 at 9:14 AM)


@Montmorency1 (July 25, 2021 at 5:01 PM)

An amazing tab and recording!